  0
SECTION
  2
HEADER
  9
$ACADVER
  1
AC1032
  9
$ACADMAINTVER
 90
      142
  9
$DWGCODEPAGE
  3
ANSI_1252
  9
$LASTSAVEDBY
  1
noegel
  9
$REQUIREDVERSIONS
160
                 0
  9
$INSBASE
 10
0.0
 20
0.0
 30
0.0
  9
$EXTMIN
 10
27733.95441829688
 20
10530.627
 30
0.0
  9
$EXTMAX
 10
85762.70724087825
 20
66262.55156426315
 30
0.0
  9
$LIMMIN
 10
28676.44
 20
-34311.43100000001
  9
$LIMMAX
 10
268824.504
 20
60875.204
  9
$ORTHOMODE
 70
     0
  9
$REGENMODE
 70
     1
  9
$FILLMODE
 70
     1
  9
$QTEXTMODE
 70
     0
  9
$MIRRTEXT
 70
     0
  9
$LTSCALE
 40
1.0
  9
$ATTMODE
 70
     1
  9
$TEXTSIZE
 40
0.2
  9
$TRACEWID
 40
0.05
  9
$TEXTSTYLE
  7
Standard
  9
$CLAYER
  8
0
  9
$CELTYPE
  6
CONTINUOUS
  9
$CECOLOR
 62
   256
  9
$CELTSCALE
 40
1.0
  9
$DISPSILH
 70
     0
  9
$DIMSCALE
 40
1.0
  9
$DIMASZ
 40
0.18
  9
$DIMEXO
 40
0.0625
  9
$DIMDLI
 40
0.38
  9
$DIMRND
 40
0.0
  9
$DIMDLE
 40
0.0
  9
$DIMEXE
 40
0.18
  9
$DIMTP
 40
0.0
  9
$DIMTM
 40
0.0
  9
$DIMTXT
 40
0.18
  9
$DIMCEN
 40
0.09
  9
$DIMTSZ
 40
0.0
  9
$DIMTOL
 70
     0
  9
$DIMLIM
 70
     0
  9
$DIMTIH
 70
     1
  9
$DIMTOH
 70
     1
  9
$DIMSE1
 70
     0
  9
$DIMSE2
 70
     0
  9
$DIMTAD
 70
     0
  9
$DIMZIN
 70
     0
  9
$DIMBLK
  1

  9
$DIMASO
 70
     1
  9
$DIMSHO
 70
     1
  9
$DIMPOST
  1

  9
$DIMAPOST
  1

  9
$DIMALT
 70
     0
  9
$DIMALTD
 70
     2
  9
$DIMALTF
 40
25.4
  9
$DIMLFAC
 40
1.0
  9
$DIMTOFL
 70
     0
  9
$DIMTVP
 40
0.0
  9
$DIMTIX
 70
     0
  9
$DIMSOXD
 70
     0
  9
$DIMSAH
 70
     0
  9
$DIMBLK1
  1

  9
$DIMBLK2
  1

  9
$DIMSTYLE
  2
Standard
  9
$DIMCLRD
 70
     0
  9
$DIMCLRE
 70
     0
  9
$DIMCLRT
 70
     0
  9
$DIMTFAC
 40
1.0
  9
$DIMGAP
 40
0.09
  9
$DIMJUST
 70
     0
  9
$DIMSD1
 70
     0
  9
$DIMSD2
 70
     0
  9
$DIMTOLJ
 70
     1
  9
$DIMTZIN
 70
     0
  9
$DIMALTZ
 70
     0
  9
$DIMALTTZ
 70
     0
  9
$DIMUPT
 70
     0
  9
$DIMDEC
 70
     4
  9
$DIMTDEC
 70
     4
  9
$DIMALTU
 70
     2
  9
$DIMALTTD
 70
     2
  9
$DIMTXSTY
  7
Standard
  9
$DIMAUNIT
 70
     0
  9
$DIMADEC
 70
     0
  9
$DIMALTRND
 40
0.0
  9
$DIMAZIN
 70
     0
  9
$DIMDSEP
 70
    46
  9
$DIMATFIT
 70
     3
  9
$DIMFRAC
 70
     0
  9
$DIMLDRBLK
  1

  9
$DIMLUNIT
 70
     2
  9
$DIMLWD
 70
    -2
  9
$DIMLWE
 70
    -2
  9
$DIMTMOVE
 70
     0
  9
$DIMFXL
 40
1.0
  9
$DIMFXLON
 70
     0
  9
$DIMJOGANG
 40
0.7853981633974483
  9
$DIMTFILL
 70
     0
  9
$DIMTFILLCLR
 70
     0
  9
$DIMARCSYM
 70
     0
  9
$DIMLTYPE
  6

  9
$DIMLTEX1
  6

  9
$DIMLTEX2
  6

  9
$DIMTXTDIRECTION
 70
     0
  9
$LUNITS
 70
     2
  9
$LUPREC
 70
     9
  9
$SKETCHINC
 40
0.1
  9
$FILLETRAD
 40
0.0
  9
$AUNITS
 70
     0
  9
$AUPREC
 70
     0
  9
$MENU
  1
.
  9
$ELEVATION
 40
0.0
  9
$PELEVATION
 40
0.0
  9
$THICKNESS
 40
0.0
  9
$LIMCHECK
 70
     0
  9
$CHAMFERA
 40
0.0
  9
$CHAMFERB
 40
0.0
  9
$CHAMFERC
 40
0.0
  9
$CHAMFERD
 40
0.0
  9
$SKPOLY
 70
     0
  9
$TDCREATE
 40
2457893.458449074
  9
$TDUCREATE
 40
2457893.375127292
  9
$TDUPDATE
 40
2459777.682581019
  9
$TDUUPDATE
 40
2459777.599247685
  9
$TDINDWG
 40
1.1749771412
  9
$TDUSRTIMER
 40
1.1749771412
  9
$USRTIMER
 70
     1
  9
$ANGBASE
 50
0.0
  9
$ANGDIR
 70
     0
  9
$PDMODE
 70
     0
  9
$PDSIZE
 40
0.0
  9
$PLINEWID
 40
0.0
  9
$SPLFRAME
 70
     0
  9
$SPLINETYPE
 70
     6
  9
$SPLINESEGS
 70
     8
  9
$HANDSEED
  5
7888
  9
$SURFTAB1
 70
     6
  9
$SURFTAB2
 70
     6
  9
$SURFTYPE
 70
     6
  9
$SURFU
 70
     6
  9
$SURFV
 70
     6
  9
$UCSBASE
  2

  9
$UCSNAME
  2

  9
$UCSORG
 10
0.0
 20
0.0
 30
0.0
  9
$UCSXDIR
 10
1.0
 20
0.0
 30
0.0
  9
$UCSYDIR
 10
0.0
 20
1.0
 30
0.0
  9
$UCSORTHOREF
  2

  9
$UCSORTHOVIEW
 70
     0
  9
$UCSORGTOP
 10
0.0
 20
0.0
 30
0.0
  9
$UCSORGBOTTOM
 10
0.0
 20
0.0
 30
0.0
  9
$UCSORGLEFT
 10
0.0
 20
0.0
 30
0.0
  9
$UCSORGRIGHT
 10
0.0
 20
0.0
 30
0.0
  9
$UCSORGFRONT
 10
0.0
 20
0.0
 30
0.0
  9
$UCSORGBACK
 10
0.0
 20
0.0
 30
0.0
  9
$PUCSBASE
  2

  9
$PUCSNAME
  2

  9
$PUCSORG
 10
0.0
 20
0.0
 30
0.0
  9
$PUCSXDIR
 10
1.0
 20
0.0
 30
0.0
  9
$PUCSYDIR
 10
0.0
 20
1.0
 30
0.0
  9
$PUCSORTHOREF
  2

  9
$PUCSORTHOVIEW
 70
     0
  9
$PUCSORGTOP
 10
0.0
 20
0.0
 30
0.0
  9
$PUCSORGBOTTOM
 10
0.0
 20
0.0
 30
0.0
  9
$PUCSORGLEFT
 10
0.0
 20
0.0
 30
0.0
  9
$PUCSORGRIGHT
 10
0.0
 20
0.0
 30
0.0
  9
$PUCSORGFRONT
 10
0.0
 20
0.0
 30
0.0
  9
$PUCSORGBACK
 10
0.0
 20
0.0
 30
0.0
  9
$USERI1
 70
     0
  9
$USERI2
 70
     0
  9
$USERI3
 70
     0
  9
$USERI4
 70
     0
  9
$USERI5
 70
     0
  9
$USERR1
 40
0.0
  9
$USERR2
 40
0.0
  9
$USERR3
 40
0.0
  9
$USERR4
 40
0.0
  9
$USERR5
 40
0.0
  9
$WORLDVIEW
 70
     1
  9
$SHADEDGE
 70
     3
  9
$SHADEDIF
 70
    70
  9
$TILEMODE
 70
     1
  9
$MAXACTVP
 70
    64
  9
$PINSBASE
 10
0.0
 20
0.0
 30
0.0
  9
$PLIMCHECK
 70
     0
  9
$PEXTMIN
 10
1.000000000000000E+20
 20
1.000000000000000E+20
 30
1.000000000000000E+20
  9
$PEXTMAX
 10
-1.000000000000000E+20
 20
-1.000000000000000E+20
 30
-1.000000000000000E+20
  9
$PLIMMIN
 10
0.0
 20
0.0
  9
$PLIMMAX
 10
12.0
 20
9.0
  9
$UNITMODE
 70
     0
  9
$VISRETAIN
 70
     1
  9
$PLINEGEN
 70
     0
  9
$PSLTSCALE
 70
     1
  9
$TREEDEPTH
 70
  3020
  9
$CMLSTYLE
  2
Standard
  9
$CMLJUST
 70
     0
  9
$CMLSCALE
 40
1.0
  9
$PROXYGRAPHICS
 70
     1
  9
$MEASUREMENT
 70
     0
  9
$CELWEIGHT
370
    -1
  9
$ENDCAPS
280
     0
  9
$JOINSTYLE
280
     0
  9
$LWDISPLAY
290
     0
  9
$INSUNITS
 70
     0
  9
$HYPERLINKBASE
  1

  9
$STYLESHEET
  1

  9
$XEDIT
290
     1
  9
$CEPSNTYPE
380
     0
  9
$PSTYLEMODE
290
     1
  9
$FINGERPRINTGUID
  2
{0EFAB8DC-9E92-4E12-BD2A-48086A50FFCD}
  9
$VERSIONGUID
  2
{6506BFF2-6A6D-114B-A402-4653744A0261}
  9
$EXTNAMES
290
     1
  9
$PSVPSCALE
 40
0.0
  9
$OLESTARTUP
290
     0
  9
$SORTENTS
280
   127
  9
$INDEXCTL
280
     0
  9
$HIDETEXT
280
     0
  9
$XCLIPFRAME
280
     2
  9
$HALOGAP
280
     0
  9
$OBSCOLOR
 70
   257
  9
$OBSLTYPE
280
     0
  9
$INTERSECTIONDISPLAY
280
     0
  9
$INTERSECTIONCOLOR
 70
   257
  9
$DIMASSOC
280
     1
  9
$PROJECTNAME
  1

  9
$CAMERADISPLAY
290
     0
  9
$LENSLENGTH
 40
50.0
  9
$CAMERAHEIGHT
 40
0.0
  9
$STEPSPERSEC
 40
2.0
  9
$STEPSIZE
 40
6.0
  9
$3DDWFPREC
 40
2.0
  9
$PSOLWIDTH
 40
0.25
  9
$PSOLHEIGHT
 40
4.0
  9
$LOFTANG1
 40
1.570796326794896
  9
$LOFTANG2
 40
1.570796326794896
  9
$LOFTMAG1
 40
0.0
  9
$LOFTMAG2
 40
0.0
  9
$LOFTPARAM
 70
     7
  9
$LOFTNORMALS
280
     1
  9
$LATITUDE
 40
37.795
  9
$LONGITUDE
 40
-122.394
  9
$NORTHDIRECTION
 40
0.0
  9
$TIMEZONE
 70
 -8000
  9
$LIGHTGLYPHDISPLAY
280
     1
  9
$TILEMODELIGHTSYNCH
280
     1
  9
$CMATERIAL
347
11
  9
$SOLIDHIST
280
     1
  9
$SHOWHIST
280
     1
  9
$DWFFRAME
280
     2
  9
$DGNFRAME
280
     0
  9
$REALWORLDSCALE
290
     1
  9
$INTERFERECOLOR
 62
     1
  9
$INTERFEREOBJVS
345
33
  9
$INTERFEREVPVS
346
2628
  9
$CSHADOW
280
     0
  9
$SHADOWPLANELOCATION
 40
0.0
  0
ENDSEC
  0
SECTION
  2
CLASSES
  0
CLASS
  1
ACDBDICTIONARYWDFLT
  2
AcDbDictionaryWithDefault
  3
ObjectDBX Classes
 90
        0
 91
        1
280
     0
281
     0
  0
CLASS
  1
MATERIAL
  2
AcDbMaterial
  3
ObjectDBX Classes
 90
     1153
 91
        3
280
     0
281
     0
  0
CLASS
  1
VISUALSTYLE
  2
AcDbVisualStyle
  3
ObjectDBX Classes
 90
     4095
 91
       26
280
     0
281
     0
  0
CLASS
  1
SCALE
  2
AcDbScale
  3
ObjectDBX Classes
 90
     1153
 91
       33
280
     0
281
     0
  0
CLASS
  1
TABLESTYLE
  2
AcDbTableStyle
  3
ObjectDBX Classes
 90
     4095
 91
        1
280
     0
281
     0
  0
CLASS
  1
MLEADERSTYLE
  2
AcDbMLeaderStyle
  3
ACDB_MLEADERSTYLE_CLASS
 90
     4095
 91
        1
280
     0
281
     0
  0
CLASS
  1
DICTIONARYVAR
  2
AcDbDictionaryVar
  3
ObjectDBX Classes
 90
        0
 91
        9
280
     0
281
     0
  0
CLASS
  1
SORTENTSTABLE
  2
AcDbSortentsTable
  3
ObjectDBX Classes
 90
        0
 91
        3
280
     0
281
     0
  0
CLASS
  1
ACDBSECTIONVIEWSTYLE
  2
AcDbSectionViewStyle
  3
ObjectDBX Classes
 90
     1025
 91
        1
280
     0
281
     0
  0
CLASS
  1
ACDBDETAILVIEWSTYLE
  2
AcDbDetailViewStyle
  3
ObjectDBX Classes
 90
     1025
 91
        1
280
     0
281
     0
  0
CLASS
  1
ACDBASSOCNETWORK
  2
AcDbAssocNetwork
  3
ObjectDBX Classes
 90
     1025
 91
        2
280
     0
281
     0
  0
CLASS
  1
ACDBASSOC2DCONSTRAINTGROUP
  2
AcDbAssoc2dConstraintGroup
  3
ObjectDBX Classes
 90
     1025
 91
        1
280
     0
281
     0
  0
CLASS
  1
ACDBASSOCGEOMDEPENDENCY
  2
AcDbAssocGeomDependency
  3
ObjectDBX Classes
 90
     1025
 91
        8
280
     0
281
     0
  0
CLASS
  1
ACDBASSOCVARIABLE
  2
AcDbAssocVariable
  3
ObjectDBX Classes
 90
     1025
 91
        0
280
     0
281
     0
  0
CLASS
  1
ACDBASSOCVALUEDEPENDENCY
  2
AcDbAssocValueDependency
  3
ObjectDBX Classes
 90
     1025
 91
        0
280
     0
281
     0
  0
CLASS
  1
ACDBASSOCDEPENDENCY
  2
AcDbAssocDependency
  3
ObjectDBX Classes
 90
     1025
 91
        0
280
     0
281
     0
  0
CLASS
  1
ASSOCDIMDEPENDENCYBODY
  2
AcDbAssocDimDependencyBody
  3
ObjectDBX Classes
 90
     1025
 91
        0
280
     0
281
     0
  0
CLASS
  1
ACDB_DYNAMICBLOCKPURGEPREVENTER_VERSION
  2
AcDbDynamicBlockPurgePreventer
  3
ObjectDBX Classes
 90
     1153
 91
        1
280
     0
281
     0
  0
CLASS
  1
CELLSTYLEMAP
  2
AcDbCellStyleMap
  3
ObjectDBX Classes
 90
     1152
 91
        2
280
     0
281
     0
  0
ENDSEC
  0
SECTION
  2
TABLES
  0
TABLE
  2
VPORT
  5
8
330
0
100
AcDbSymbolTable
 70
     1
  0
VPORT
  5
7A
330
8
100
AcDbSymbolTableRecord
100
AcDbViewportTableRecord
  2
*ACTIVE
 70
     0
 10
0.0
 20
0.0
 11
1.0
 21
1.0
 12
38578.7580070366
 22
50428.51022083728
 13
0.0
 23
0.0
 14
1.0
 24
1.0
 15
0.0
 25
0.0
 16
0.0
 26
0.0
 36
1.0
 17
0.0
 27
0.0
 37
0.0
 40
31047.56463217264
 41
1.428571428571428
 42
50.0
 43
0.0
 44
0.0
 50
0.0
 51
0.0
 71
     0
 72
   100
 73
     1
 74
     1
 75
     0
 76
     0
 77
     0
 78
     0
281
     0
 65
     1
110
0.0
120
0.0
130
0.0
111
1.0
121
0.0
131
0.0
112
0.0
122
1.0
132
0.0
 79
     0
146
0.0
348
2F
 60
     3
 61
     5
292
     1
282
     0
141
0.0
142
0.0
 63
   250
421
  3355443
1001
ACAD_NAV_VCDISPLAY
1070
     3
  0
ENDTAB
  0
TABLE
  2
LTYPE
  5
5
330
0
100
AcDbSymbolTable
 70
     4
  0
LTYPE
  5
65
330
5
100
AcDbSymbolTableRecord
100
AcDbLinetypeTableRecord
  2
ByBlock
 70
     0
  3

 72
    65
 73
     0
 40
0.0
  0
LTYPE
  5
66
330
5
100
AcDbSymbolTableRecord
100
AcDbLinetypeTableRecord
  2
ByLayer
 70
     0
  3

 72
    65
 73
     0
 40
0.0
  0
LTYPE
  5
67
330
5
100
AcDbSymbolTableRecord
100
AcDbLinetypeTableRecord
  2
CONTINUOUS
 70
     0
  3
Solid line
 72
    65
 73
     0
 40
0.0
  0
LTYPE
  5
7B
330
5
100
AcDbSymbolTableRecord
100
AcDbLinetypeTableRecord
  2
BYBLOCK
 70
     0
  3

 72
    65
 73
     0
 40
0.0
  0
LTYPE
  5
7C
330
5
100
AcDbSymbolTableRecord
100
AcDbLinetypeTableRecord
  2
BYLAYER
 70
     0
  3

 72
    65
 73
     0
 40
0.0
  0
ENDTAB
  0
TABLE
  2
LAYER
  5
2
102
{ACAD_XDICTIONARY
360
25F7
102
}
330
0
100
AcDbSymbolTable
 70
     2
  0
LAYER
  5
5F
102
{ACAD_XDICTIONARY
360
25ED
102
}
330
2
100
AcDbSymbolTableRecord
100
AcDbLayerTableRecord
  2
0
 70
     0
 62
     7
  6
CONTINUOUS
370
    -3
390
F
347
21
348
0
  0
LAYER
  5
3123
330
2
100
AcDbSymbolTableRecord
100
AcDbLayerTableRecord
  2
*ADSK_CONSTRAINTS
 70
     0
 62
     7
  6
CONTINUOUS
370
    -3
390
F
347
21
348
0
  0
ENDTAB
  0
TABLE
  2
STYLE
  5
3
330
0
100
AcDbSymbolTable
 70
     4
  0
STYLE
  5
60
330
3
100
AcDbSymbolTableRecord
100
AcDbTextStyleTableRecord
  2
Standard
 70
     0
 40
0.0
 41
1.0
 50
0.0
 71
     0
 42
0.2
  3
txt
  4

  0
STYLE
  5
64
330
3
100
AcDbSymbolTableRecord
100
AcDbTextStyleTableRecord
  2
Annotative
 70
     0
 40
0.0
 41
1.0
 50
0.0
 71
     0
 42
0.2
  3
txt
  4

1001
AcadAnnotative
1000
AnnotativeData
1002
{
1070
     1
1070
     1
1002
}
  0
ENDTAB
  0
TABLE
  2
VIEW
  5
6
330
0
100
AcDbSymbolTable
 70
     3
  0
ENDTAB
  0
TABLE
  2
UCS
  5
7
330
0
100
AcDbSymbolTable
 70
     0
  0
ENDTAB
  0
TABLE
  2
APPID
  5
9
330
0
100
AcDbSymbolTable
 70
     9
  0
APPID
  5
61
330
9
100
AcDbSymbolTableRecord
100
AcDbRegAppTableRecord
  2
ACAD
 70
     0
  0
APPID
  5
68
330
9
100
AcDbSymbolTableRecord
100
AcDbRegAppTableRecord
  2
AcadAnnotative
 70
     0
  0
APPID
  5
279C
330
9
100
AcDbSymbolTableRecord
100
AcDbRegAppTableRecord
  2
ACAD_EXEMPT_FROM_CAD_STANDARDS
 70
     0
  0
APPID
  5
27B8
330
9
100
AcDbSymbolTableRecord
100
AcDbRegAppTableRecord
  2
ACAD_NAV_VCDISPLAY
 70
     0
  0
APPID
  5
312C
330
9
100
AcDbSymbolTableRecord
100
AcDbRegAppTableRecord
  2
ACAD_DSTYLE_DIMINSPECT
 70
     0
  0
APPID
  5
312D
330
9
100
AcDbSymbolTableRecord
100
AcDbRegAppTableRecord
  2
ACAD_DSTYLE_DIMJAG_POSITION
 70
     0
  0
APPID
  5
312F
330
9
100
AcDbSymbolTableRecord
100
AcDbRegAppTableRecord
  2
AcadAnnoMonitorAlertIconDisabled
 70
     0
  0
APPID
  5
5A46
330
9
100
AcDbSymbolTableRecord
100
AcDbRegAppTableRecord
  2
AcDbDynamicBlockTrueName2
 70
     0
  0
APPID
  5
5A47
330
9
100
AcDbSymbolTableRecord
100
AcDbRegAppTableRecord
  2
AcDbDynamicBlockGUID
 70
     0
  0
ENDTAB
  0
TABLE
  2
DIMSTYLE
  5
A
330
0
100
AcDbSymbolTable
 70
     4
100
AcDbDimStyleTable
 71
     1
340
62
  0
DIMSTYLE
105
62
330
A
100
AcDbSymbolTableRecord
100
AcDbDimStyleTableRecord
  2
Standard
 70
     0
340
60
  0
DIMSTYLE
105
63
330
A
100
AcDbSymbolTableRecord
100
AcDbDimStyleTableRecord
  2
Annotative
 70
     0
340
60
1001
AcadAnnotative
1000
AnnotativeData
1002
{
1070
     1
1070
     1
1002
}
  0
ENDTAB
  0
TABLE
  2
BLOCK_RECORD
  5
1
330
0
100
AcDbSymbolTable
 70
     3
  0
BLOCK_RECORD
  5
76
102
{ACAD_XDICTIONARY
360
279A
102
}
330
1
100
AcDbSymbolTableRecord
100
AcDbBlockTableRecord
  2
*Model_Space
340
79
 70
     0
280
     1
281
     0
  0
BLOCK_RECORD
  5
72
330
1
100
AcDbSymbolTableRecord
100
AcDbBlockTableRecord
  2
*Paper_Space
340
75
 70
     0
280
     1
281
     0
  0
BLOCK_RECORD
  5
3126
330
1
100
AcDbSymbolTableRecord
100
AcDbBlockTableRecord
  2
_ClosedBlank
340
0
 70
     0
280
     1
281
     0
  0
BLOCK_RECORD
  5
4BFA
102
{ACAD_XDICTIONARY
360
4C06
102
}
330
1
100
AcDbSymbolTableRecord
100
AcDbBlockTableRecord
  2
A$C23D0306B
340
0
 70
     0
280
     1
281
     0
1001
AcDbDynamicBlockTrueName2
1000
A$C23D0306B
1001
AcDbDynamicBlockGUID
1000
{BD86A016-1B80-EA41-BD61-F0A2117A477D}
  0
BLOCK_RECORD
  5
4CEC
102
{ACAD_XDICTIONARY
360
4D16
102
}
330
1
100
AcDbSymbolTableRecord
100
AcDbBlockTableRecord
  2
A$C222D41EB
340
0
 70
     0
280
     1
281
     0
  0
ENDTAB
  0
ENDSEC
  0
SECTION
  2
BLOCKS
  0
BLOCK
  5
77
330
76
100
AcDbEntity
  8
0
100
AcDbBlockBegin
  2
*Model_Space
 70
     0
 10
0.0
 20
0.0
 30
0.0
  3
*Model_Space
  1

  0
ENDBLK
  5
78
330
76
100
AcDbEntity
  8
0
100
AcDbBlockEnd
  0
BLOCK
  5
73
330
72
100
AcDbEntity
 67
     1
  8
0
100
AcDbBlockBegin
  2
*Paper_Space
 70
     0
 10
0.0
 20
0.0
 30
0.0
  3
*Paper_Space
  1

  0
ENDBLK
  5
74
330
72
100
AcDbEntity
 67
     1
  8
0
100
AcDbBlockEnd
  0
BLOCK
  5
312A
330
3126
100
AcDbEntity
  8
0
100
AcDbBlockBegin
  2
_ClosedBlank
 70
     0
 10
0.0
 20
0.0
 30
0.0
  3
_ClosedBlank
  1

  0
LINE
  5
3127
330
3126
100
AcDbEntity
  8
0
  6
ByBlock
 62
     0
370
    -2
100
AcDbLine
 10
-1.0
 20
0.1666666666666666
 30
0.0
 11
0.0
 21
0.0
 31
0.0
  0
LINE
  5
3128
330
3126
100
AcDbEntity
  8
0
  6
ByBlock
 62
     0
370
    -2
100
AcDbLine
 10
0.0
 20
0.0
 30
0.0
 11
-1.0
 21
-0.1666666666666666
 31
0.0
  0
LINE
  5
3129
330
3126
100
AcDbEntity
  8
0
  6
ByBlock
 62
     0
370
    -2
100
AcDbLine
 10
-1.0
 20
0.1666666666666666
 30
0.0
 11
-1.0
 21
-0.1666666666666666
 31
0.0
  0
ENDBLK
  5
312B
330
3126
100
AcDbEntity
  8
0
100
AcDbBlockEnd
  0
BLOCK
  5
4C08
330
4BFA
100
AcDbEntity
  8
0
100
AcDbBlockBegin
  2
A$C23D0306B
 70
     0
 10
0.0
 20
0.0
 30
0.0
  3
A$C23D0306B
  1

  0
LINE
  5
4BFB
330
4BFA
100
AcDbEntity
  8
0
100
AcDbLine
 10
575.308723608432
 20
553.8520024848312
 30
0.0
 11
725.308723608432
 21
553.8520024848312
 31
0.0
  0
LINE
  5
4BFC
330
4BFA
100
AcDbEntity
  8
0
  6
Continuous
100
AcDbLine
 10
725.308723608432
 20
473.8520024848312
 30
0.0
 11
352.7280226309085
 21
473.8520024848312
 31
0.0
  0
LINE
  5
4BFD
102
{ACAD_REACTORS
330
4C12
102
}
330
4BFA
100
AcDbEntity
  8
0
  6
Continuous
100
AcDbLine
 10
352.7280226348594
 20
473.8520024849572
 30
0.0
 11
202.7547400357289
 21
428.3315538598357
 31
0.0
  0
LINE
  5
4BFE
102
{ACAD_REACTORS
330
4C13
102
}
330
4BFA
100
AcDbEntity
  8
0
  6
Continuous
100
AcDbLine
 10
202.7547400357289
 20
428.3315538598357
 30
0.0
 11
142.7655632222668
 21
325.5318241902128
 31
0.0
  0
LINE
  5
4BFF
102
{ACAD_REACTORS
330
4C0D
102
}
330
4BFA
100
AcDbEntity
  8
0
  6
Continuous
100
AcDbLine
 10
142.7655632222668
 20
325.5318241902128
 30
0.0
 11
105.3442662943707
 21
261.4052698279774
 31
0.0
  0
LINE
  5
4C00
102
{ACAD_REACTORS
330
4C10
102
}
330
4BFA
100
AcDbEntity
  8
0
  6
Continuous
100
AcDbLine
 10
104.2503770459006
 20
-0.0000000000172804
 30
0.0
 11
104.626852945621
 21
89.96594882646878
 31
0.0
  0
LINE
  5
4C01
102
{ACAD_REACTORS
330
4C11
102
}
330
4BFA
100
AcDbEntity
  8
0
  6
Continuous
100
AcDbLine
 10
104.626852945621
 20
89.96594882646878
 30
0.0
 11
105.3442662943707
 21
261.4052698279774
 31
0.0
  0
LINE
  5
4C02
102
{ACAD_REACTORS
330
4C0F
102
}
330
4BFA
100
AcDbEntity
  8
0
  6
Continuous
100
AcDbLine
 10
473.308723608643
 20
573.8520024848839
 30
0.0
 11
386.8540060392115
 21
573.8520024848839
 31
0.0
  0
LINE
  5
4C03
102
{ACAD_REACTORS
330
4C0E
102
}
330
4BFA
100
AcDbEntity
  8
0
  6
Continuous
100
AcDbLine
 10
386.8540060392115
 20
573.8520024848839
 30
0.0
 11
230.315990932635
 21
562.9634170616045
 31
0.0
  0
LINE
  5
4C04
102
{ACAD_REACTORS
330
4C14
102
}
330
4BFA
100
AcDbEntity
  8
0
  6
Continuous
100
AcDbLine
 10
230.315990932635
 20
562.9634170616045
 30
0.0
 11
89.40851457464304
 21
491.4128041358735
 31
0.0
  0
LINE
  5
4C05
330
4BFA
100
AcDbEntity
  8
0
  6
Continuous
100
AcDbLine
 10
89.40851457464304
 20
491.4128041358735
 30
0.0
 11
0.000174056396645
 21
289.5761386452941
 31
0.0
  0
ENDBLK
  5
4C09
330
4BFA
100
AcDbEntity
  8
0
100
AcDbBlockEnd
  0
BLOCK
  5
4D18
330
4CEC
100
AcDbEntity
  8
0
100
AcDbBlockBegin
  2
A$C222D41EB
 70
     0
 10
0.0
 20
0.0
 30
0.0
  3
A$C222D41EB
  1

  0
LINE
  5
4CED
330
4CEC
100
AcDbEntity
  8
0
100
AcDbLine
 10
1280.475856274941
 20
509.2139983356609
 30
0.0
 11
1217.231856274942
 21
464.5779983356551
 31
0.0
  0
LINE
  5
4CEE
330
4CEC
100
AcDbEntity
  8
0
100
AcDbLine
 10
1217.231856274942
 20
464.5779983356551
 30
0.0
 11
1135.171856274944
 21
426.7069983356559
 31
0.0
  0
LINE
  5
4CEF
330
4CEC
100
AcDbEntity
  8
0
100
AcDbLine
 10
1135.171856274944
 20
426.7069983356559
 30
0.0
 11
1047.298856274945
 21
405.5739983356615
 31
0.0
  0
LINE
  5
4CF0
330
4CEC
100
AcDbEntity
  8
0
100
AcDbLine
 10
1047.298856274945
 20
405.5739983356615
 30
0.0
 11
956.9928562749446
 21
401.9879983356513
 31
0.0
  0
LINE
  5
4CF1
330
4CEC
100
AcDbEntity
  8
0
100
AcDbLine
 10
956.9928562749446
 20
401.9879983356513
 30
0.0
 11
867.7218562749439
 21
416.0909983356614
 31
0.0
  0
LINE
  5
4CF2
330
4CEC
100
AcDbEntity
  8
0
100
AcDbLine
 10
867.7218562749439
 20
416.0909983356614
 30
0.0
 11
782.9178562749439
 21
447.3379983356498
 31
0.0
  0
LINE
  5
4CF3
330
4CEC
100
AcDbEntity
  8
0
100
AcDbLine
 10
782.9178562749439
 20
447.3379983356498
 30
0.0
 11
705.8398562749426
 21
494.528998335656
 31
0.0
  0
LINE
  5
4CF4
330
4CEC
100
AcDbEntity
  8
0
100
AcDbLine
 10
705.8398562749426
 20
494.528998335656
 30
0.0
 11
639.4478562749427
 21
555.8509983356635
 31
0.0
  0
LINE
  5
4CF5
330
4CEC
100
AcDbEntity
  8
0
100
AcDbLine
 10
639.4478562749427
 20
555.8509983356635
 30
0.0
 11
586.2958562749408
 21
628.9459983356573
 31
0.0
  0
LINE
  5
4CF6
330
4CEC
100
AcDbEntity
  8
0
100
AcDbLine
 10
586.2958562749408
 20
628.9459983356573
 30
0.0
 11
548.4248562749416
 21
711.0069983356588
 31
0.0
  0
LINE
  5
4CF7
330
4CEC
100
AcDbEntity
  8
0
100
AcDbLine
 10
548.4248562749416
 20
711.0069983356588
 30
0.0
 11
527.2908562749434
 21
798.8789983356618
 31
0.0
  0
LINE
  5
4CF8
330
4CEC
100
AcDbEntity
  8
0
100
AcDbLine
 10
527.2908562749434
 20
798.8789983356618
 30
0.0
 11
523.7068562749445
 21
889.1859983356626
 31
0.0
  0
LINE
  5
4CF9
330
4CEC
100
AcDbEntity
  8
0
100
AcDbLine
 10
523.7068562749445
 20
889.1859983356626
 30
0.0
 11
537.8088562749435
 21
978.456998335656
 31
0.0
  0
LINE
  5
4CFA
330
4CEC
100
AcDbEntity
  8
0
100
AcDbLine
 10
537.8088562749435
 20
978.456998335656
 30
0.0
 11
569.0568562749431
 21
1063.261998335656
 31
0.0
  0
LINE
  5
4CFB
330
4CEC
100
AcDbEntity
  8
0
100
AcDbLine
 10
569.0568562749431
 20
1063.261998335656
 30
0.0
 11
616.2468562749418
 21
1140.339998335657
 31
0.0
  0
LINE
  5
4CFC
330
4CEC
100
AcDbEntity
  8
0
100
AcDbLine
 10
616.2468562749418
 20
1140.339998335657
 30
0.0
 11
677.5688562749455
 21
1206.730998335661
 31
0.0
  0
LINE
  5
4CFD
330
4CEC
100
AcDbEntity
  8
0
100
AcDbLine
 10
677.5688562749455
 20
1206.730998335661
 30
0.0
 11
750.6648562749396
 21
1259.883998335659
 31
0.0
  0
LINE
  5
4CFE
330
4CEC
100
AcDbEntity
  8
0
100
AcDbLine
 10
750.6648562749396
 20
1259.883998335659
 30
0.0
 11
832.7258562749412
 21
1297.753998335662
 31
0.0
  0
LINE
  5
4CFF
330
4CEC
100
AcDbEntity
  8
0
100
AcDbLine
 10
832.7258562749412
 20
1297.753998335662
 30
0.0
 11
920.5978562749441
 21
1318.887998335653
 31
0.0
  0
LINE
  5
4D00
330
4CEC
100
AcDbEntity
  8
0
100
AcDbLine
 10
920.5978562749441
 20
1318.887998335653
 30
0.0
 11
1010.903856274945
 21
1322.471998335655
 31
0.0
  0
LINE
  5
4D01
330
4CEC
100
AcDbEntity
  8
0
100
AcDbLine
 10
1010.903856274945
 20
1322.471998335655
 30
0.0
 11
1100.174856274942
 21
1308.369998335656
 31
0.0
  0
LINE
  5
4D02
330
4CEC
100
AcDbEntity
  8
0
100
AcDbLine
 10
1100.174856274942
 20
1308.369998335656
 30
0.0
 11
1184.978856274945
 21
1277.122998335653
 31
0.0
  0
LINE
  5
4D03
330
4CEC
100
AcDbEntity
  8
0
100
AcDbLine
 10
1184.978856274945
 20
1277.122998335653
 30
0.0
 11
1262.058856274943
 21
1229.931998335654
 31
0.0
  0
LINE
  5
4D04
330
4CEC
100
AcDbEntity
  8
0
100
AcDbLine
 10
1262.058856274943
 20
1229.931998335654
 30
0.0
 11
1328.448856274947
 21
1168.609998335654
 31
0.0
  0
LINE
  5
4D05
330
4CEC
100
AcDbEntity
  8
0
100
AcDbLine
 10
1328.448856274947
 20
1168.609998335654
 30
0.0
 11
1381.600856274941
 21
1095.514998335653
 31
0.0
  0
LINE
  5
4D06
330
4CEC
100
AcDbEntity
  8
0
100
AcDbLine
 10
1381.600856274941
 20
1095.514998335653
 30
0.0
 11
1419.472856274944
 21
1013.453998335659
 31
0.0
  0
LINE
  5
4D07
330
4CEC
100
AcDbEntity
  8
0
100
AcDbLine
 10
1419.472856274944
 20
1013.453998335659
 30
0.0
 11
1440.605856274942
 21
925.5819983356559
 31
0.0
  0
LINE
  5
4D08
330
4CEC
100
AcDbEntity
  8
0
100
AcDbLine
 10
1440.605856274942
 20
925.5819983356559
 30
0.0
 11
1444.190856274941
 21
835.2749983356552
 31
0.0
  0
LINE
  5
4D09
330
4CEC
100
AcDbEntity
  8
0
100
AcDbLine
 10
1444.190856274941
 20
835.2749983356552
 30
0.0
 11
1430.087856274946
 21
746.0049983356512
 31
0.0
  0
LINE
  5
4D0A
330
4CEC
100
AcDbEntity
  8
0
100
AcDbLine
 10
1430.087856274946
 20
746.0049983356512
 30
0.0
 11
1402.070856274942
 21
668.0059983356622
 31
0.0
  0
LWPOLYLINE
  5
4D0B
330
4CEC
100
AcDbEntity
  8
0
100
AcDbPolyline
 90
        5
 70
     1
 43
0.0
 10
674.18485627494
 20
231.06599833566
 10
578.7438562749448
 20
-0.0000016643462004
 10
433.7148562749425
 20
75.31499833565613
 10
567.8308562749407
 20
286.2959983356632
 10
674.18485627494
 20
231.06599833566
  0
LWPOLYLINE
  5
4D0C
330
4CEC
100
AcDbEntity
  8
0
100
AcDbPolyline
 90
        5
 70
     1
 43
0.0
 10
472.6838562749435
 20
359.1549983356526
 10
303.9688562749434
 20
174.6679983356516
 10
193.4468562749425
 20
295.0419983356551
 10
391.6348562749409
 20
447.4289983356575
 10
472.6838562749435
 20
359.1549983356526
  0
LWPOLYLINE
  5
4D0D
330
4CEC
100
AcDbEntity
  8
0
100
AcDbPolyline
 90
        5
 70
     1
 43
0.0
 10
327.1448562749429
 20
548.4359983356625
 10
105.5058562749436
 20
432.778998335656
 10
42.81985627494214
 20
583.6939983356569
 10
281.1738562749452
 20
659.1079983356539
 10
327.1448562749429
 20
548.4359983356625
  0
LWPOLYLINE
  5
4D0E
330
4CEC
100
AcDbEntity
  8
0
100
AcDbPolyline
 90
        5
 70
     1
 43
0.0
 10
255.1198562749414
 20
776.0799983356555
 10
7.290856274943507
 20
743.2029983356551
 10
-0.0001437250575691
 20
906.4569983356559
 10
249.7738562749437
 20
895.7999983356566
 10
255.1198562749414
 20
776.0799983356555
  0
LWPOLYLINE
  5
4D0F
330
4CEC
100
AcDbEntity
  8
0
100
AcDbPolyline
 90
        5
 70
     1
 43
0.0
 10
301.21985627494
 20
1128.957998335652
 10
70.15485627494126
 20
1224.398998335658
 10
21.16985627494068
 20
1068.496998335657
 10
265.2968562749447
 20
1014.629998335651
 10
301.21985627494
 20
1128.957998335652
  0
LWPOLYLINE
  5
4D10
330
4CEC
100
AcDbEntity
  8
0
100
AcDbPolyline
 90
        5
 70
     1
 43
0.0
 10
517.5828562749448
 20
1411.508998335659
 10
365.1948562749421
 20
1609.695998335657
 10
502.9318562749431
 20
1697.63599833566
 10
618.588856274946
 20
1475.998998335657
 10
517.5828562749448
 20
1411.508998335659
  0
LWPOLYLINE
  5
4D11
330
4CEC
100
AcDbEntity
  8
0
100
AcDbPolyline
 90
        5
 70
     1
 43
0.0
 10
729.260856274941
 20
1521.969998335655
 10
653.8478562749442
 20
1760.323998335661
 10
813.3548562749419
 20
1795.85199833566
 10
846.2348562749429
 20
1548.023998335659
 10
729.260856274941
 20
1521.969998335655
  0
LWPOLYLINE
  5
4D12
330
4CEC
100
AcDbEntity
  8
0
100
AcDbPolyline
 90
        5
 70
     1
 43
0.0
 10
965.9538562749439
 20
1553.369998335656
 10
976.609856274943
 20
1803.14299833565
 10
1138.64985627494
 20
1781.973998335656
 10
1084.782856274945
 20
1537.845998335659
 10
965.9538562749439
 20
1553.369998335656
  0
LWPOLYLINE
  5
4D13
330
4CEC
100
AcDbEntity
  8
0
100
AcDbPolyline
 90
        5
 70
     1
 43
0.0
 10
1199.111856274943
 20
1501.921998335659
 10
1294.551856274942
 20
1732.987998335651
 10
1439.57985627494
 20
1657.67399833566
 10
1305.463856274946
 20
1446.693998335657
 10
1199.111856274943
 20
1501.921998335659
  0
LWPOLYLINE
  5
4D14
330
4CEC
100
AcDbEntity
  8
0
100
AcDbPolyline
 90
        5
 70
     1
 43
0.0
 10
356.4498562749431
 20
1235.310998335662
 10
145.4678562749432
 20
1369.42599833566
 10
244.8208562749424
 20
1499.172998335656
 10
429.3078562749433
 20
1330.458998335656
 10
356.4498562749431
 20
1235.310998335662
  0
LWPOLYLINE
  5
4D15
330
4CEC
100
AcDbEntity
  8
0
100
AcDbPolyline
 90
        5
 70
     1
 43
0.0
 10
1481.661856274943
 20
1285.560998335662
 10
1679.848856274944
 20
1437.946998335654
 10
1569.325856274943
 20
1558.320998335657
 10
1400.611856274943
 20
1373.834998335653
 10
1481.661856274943
 20
1285.560998335662
  0
ENDBLK
  5
4D19
330
4CEC
100
AcDbEntity
  8
0
100
AcDbBlockEnd
  0
ENDSEC
  0
SECTION
  2
ENTITIES
  0
LWPOLYLINE
  5
1F2
330
76
100
AcDbEntity
  8
0
100
AcDbPolyline
 90
       13
 70
     1
 43
0.0
 10
35991.01605247327
 20
53671.93196746423
 10
36062.40005247327
 20
53768.38996746423
 10
36327.65905247327
 20
53572.07996746423
 10
36256.27405247326
 20
53475.62196746423
 10
36449.19005247327
 20
53332.84996746423
 10
36431.34305247327
 20
53308.73696746423
 10
36214.31305247326
 20
53469.35396746424
 10
36285.69805247327
 20
53565.81196746423
 10
36068.66905247327
 20
53726.42896746423
 10
35997.28405247327
 20
53629.97096746423
 10
35780.25305247327
 20
53790.58796746423
 10
35798.10005247327
 20
53814.70296746423
 10
35991.01605247327
 20
53671.93196746423
  0
LWPOLYLINE
  5
201
330
76
100
AcDbEntity
  8
0
100
AcDbPolyline
 90
       13
 70
     1
 43
0.0
 10
35762.40705247327
 20
53766.47396746423
 10
36003.55205247327
 20
53588.00996746423
 10
36074.93705247327
 20
53684.46896746424
 10
36243.73805247327
 20
53559.54296746423
 10
36172.35205247327
 20
53463.08596746422
 10
36413.49705247327
 20
53284.62196746423
 10
36395.65005247327
 20
53260.50796746423
 10
36130.39105247327
 20
53456.81796746423
 10
36201.77705247327
 20
53553.27496746423
 10
36081.20505247327
 20
53642.50796746423
 10
36009.81905247326
 20
53546.04896746423
 10
35744.56005247327
 20
53742.35896746423
 10
35762.40705247327
 20
53766.47396746423
  0
LWPOLYLINE
  5
210
330
76
100
AcDbEntity
  8
0
100
AcDbPolyline
 90
       13
 70
     1
 43
0.0
 10
35726.71405247327
 20
53718.24596746423
 10
36016.08705247327
 20
53504.08896746424
 10
36087.47305247327
 20
53600.54596746422
 10
36159.81605247327
 20
53547.00696746423
 10
36088.43105247327
 20
53450.54996746423
 10
36377.80405247327
 20
53236.39296746422
 10
36324.26505247327
 20
53164.04996746423
 10
36034.89205247327
 20
53378.20696746423
 10
35963.50705247327
 20
53281.74796746423
 10
35891.16305247327
 20
53335.28796746423
 10
35962.54905247327
 20
53431.74496746423
 10
35673.17405247327
 20
53645.90196746423
 10
35726.71405247327
 20
53718.24596746423
  0
LWPOLYLINE
  5
21F
330
76
100
AcDbEntity
  8
0
100
AcDbPolyline
 90
       13
 70
     1
 43
0.0
 10
35794.70405247326
 20
53406.67296746422
 10
35723.32005247327
 20
53310.21496746423
 10
35988.57805247327
 20
53113.90496746422
 10
36059.96405247327
 20
53210.36196746423
 10
36252.87905247327
 20
53067.59196746424
 10
36270.72705247327
 20
53091.70696746423
 10
36053.69605247327
 20
53252.32296746422
 10
35982.31005247327
 20
53155.86596746422
 10
35765.28105247327
 20
53316.48296746423
 10
35836.66605247326
 20
53412.94196746424
 10
35619.63605247327
 20
53573.55796746422
 10
35601.78905247326
 20
53549.44296746423
 10
35794.70405247326
 20
53406.67296746422
  0
LWPOLYLINE
  5
22E
330
76
100
AcDbEntity
  8
0
100
AcDbPolyline
 90
       13
 70
     1
 43
0.0
 10
35637.48205247327
 20
53597.67296746422
 10
35878.62705247327
 20
53419.20996746423
 10
35807.24205247327
 20
53322.75096746423
 10
35976.04305247326
 20
53197.82696746424
 10
36047.42805247327
 20
53294.28496746423
 10
36288.57205247327
 20
53115.82096746422
 10
36306.42005247327
 20
53139.93496746423
 10
36041.16005247327
 20
53336.24596746423
 10
35969.77505247327
 20
53239.78796746423
 10
35849.20305247327
 20
53329.01896746424
 10
35920.58805247326
 20
53425.47696746422
 10
35655.32905247327
 20
53621.78696746423
 10
35637.48205247327
 20
53597.67296746422
  0
LWPOLYLINE
  5
23D
330
76
100
AcDbEntity
  8
0
100
AcDbPolyline
 90
        7
 70
     1
 43
0.0
 10
38232.26805247326
 20
57014.32596746422
 10
38916.39505247327
 20
57014.32596746422
 10
38461.88905247327
 20
57396.21996746423
 10
38409.36305247327
 20
57357.93596746423
 10
38271.59405247327
 20
57284.29696746423
 10
38232.26805247326
 20
57269.21196746423
 10
38232.26805247326
 20
57014.32596746422
  0
LWPOLYLINE
  5
246
330
76
100
AcDbEntity
  8
0
100
AcDbPolyline
 90
        7
 70
     1
 43
0.0
 10
37471.39805247327
 20
57396.21996746423
 10
37523.92305247326
 20
57357.93596746423
 10
37661.69305247327
 20
57284.29696746423
 10
37701.01805247326
 20
57269.21196746423
 10
37701.01805247326
 20
57014.32596746422
 10
37016.89205247327
 20
57014.32596746422
 10
37471.39805247327
 20
57396.21996746423
  0
LWPOLYLINE
  5
24F
330
76
100
AcDbEntity
  8
0
100
AcDbPolyline
 90
        6
 70
     1
 43
0.0
 10
37200.53405247327
 20
57801.22896746424
 10
37230.42705247327
 20
57715.56196746423
 10
37266.34605247327
 20
57640.25996746423
 10
36521.40105247327
 20
57014.32596746422
 10
36074.86405247327
 20
57014.32596746422
 10
37200.53405247327
 20
57801.22896746424
  0
LWPOLYLINE
  5
257
330
76
100
AcDbEntity
  8
0
100
AcDbPolyline
 90
        6
 70
     1
 43
0.0
 10
38666.94105247327
 20
57640.25996746423
 10
39411.88605247327
 20
57014.32596746422
 10
39858.42305247326
 20
57014.32596746422
 10
38732.75305247327
 20
57801.22896746424
 10
38702.86005247327
 20
57715.56196746423
 10
38666.94105247327
 20
57640.25996746423
  0
LWPOLYLINE
  5
25F
330
76
100
AcDbEntity
  8
0
100
AcDbPolyline
 90
       76
 70
     1
 43
0.0
 10
30040.77705247327
 20
47059.7068293273
 10
29219.23005247327
 20
48050.7128293273
 10
29204.20205247327
 20
48044.17382932729
 10
29117.62305247327
 20
48017.90982932731
 10
29027.58405247327
 20
48009.0418293273
 10
28937.54605247327
 20
48017.90982932731
 10
28850.96705247327
 20
48044.17382932729
 10
28771.17605247327
 20
48086.8228293273
 10
28701.23805247327
 20
48144.21882932729
 10
28643.84205247327
 20
48214.15682932729
 10
28601.19205247327
 20
48293.9478293273
 10
28574.92905247327
 20
48380.52682932731
 10
28566.06105247327
 20
48470.5658293273
 10
28574.92905247327
 20
48560.6038293273
 10
28601.19205247327
 20
48647.1828293273
 10
28643.84205247327
 20
48726.9738293273
 10
28701.23805247327
 20
48796.9118293273
 10
28771.17605247327
 20
48854.3078293273
 10
28850.96705247327
 20
48896.9578293273
 10
28937.54605247327
 20
48923.2208293273
 10
29027.58405247327
 20
48932.0888293273
 10
29117.62305247327
 20
48923.2208293273
 10
29204.20205247327
 20
48896.9578293273
 10
29283.99305247327
 20
48854.3078293273
 10
29353.93105247327
 20
48796.9118293273
 10
29411.32705247327
 20
48726.9738293273
 10
29453.97605247327
 20
48647.1828293273
 10
29480.24005247327
 20
48560.6038293273
 10
29489.10805247327
 20
48470.5658293273
 10
29480.24005247327
 20
48380.52682932731
 10
29453.97605247327
 20
48293.9478293273
 10
29411.32705247327
 20
48214.15682932729
 10
29396.59205247327
 20
48193.37082932729
 10
30203.44205247327
 20
47273.86482932731
 10
36603.31805247327
 20
46401.4078293273
 10
37831.65305247327
 20
46285.7508293273
 10
37866.86705247327
 20
46285.7508293273
 10
37866.64405247327
 20
47059.3958293273
 10
36420.44305247327
 20
47195.35782932731
 10
31653.82905247327
 20
49048.17782932731
 10
31590.58505247327
 20
49003.5418293273
 10
31508.52505247327
 20
48965.67082932731
 10
31420.65205247327
 20
48944.53782932731
 10
31330.34605247327
 20
48940.9518293273
 10
31241.07505247327
 20
48955.05482932731
 10
31156.27105247327
 20
48986.3018293273
 10
31079.19305247327
 20
49033.4928293273
 10
31012.80105247327
 20
49094.81482932731
 10
30959.64905247327
 20
49167.9098293273
 10
30921.77805247326
 20
49249.97082932731
 10
30900.64405247327
 20
49337.84282932731
 10
30897.06005247327
 20
49428.14982932731
 10
30911.16205247327
 20
49517.4208293273
 10
30942.41005247327
 20
49602.2258293273
 10
30989.60005247327
 20
49679.3038293273
 10
31050.92205247327
 20
49745.6948293273
 10
31124.01805247326
 20
49798.84782932731
 10
31206.07905247327
 20
49836.71782932731
 10
31293.95105247327
 20
49857.8518293273
 10
31384.25705247327
 20
49861.4358293273
 10
31473.52805247327
 20
49847.3338293273
 10
31558.33205247327
 20
49816.0868293273
 10
31635.41205247327
 20
49768.8958293273
 10
31701.80205247327
 20
49707.5738293273
 10
31754.95405247326
 20
49634.47882932729
 10
31792.82605247327
 20
49552.41782932731
 10
31813.95905247327
 20
49464.5458293273
 10
31817.54405247326
 20
49374.2388293273
 10
31803.44105247327
 20
49284.9688293273
 10
31775.42405247327
 20
49206.96982932731
 10
36439.68605247327
 20
47249.72482932731
 10
37896.64405247327
 20
47089.39582932423
 91
        5
 10
37896.64405247327
 20
46255.75082932424
 91
        6
 10
37831.64405247327
 20
46255.7508293273
 10
36604.14605247327
 20
46368.3918293273
 10
30040.77705247327
 20
47059.7068293273
  0
LWPOLYLINE
  5
2AD
330
76
100
AcDbEntity
  8
0
100
AcDbPolyline
 90
        5
 70
     1
 43
0.0
 10
31047.53805247327
 20
48770.0298293273
 10
30952.09705247327
 20
48538.9638293273
 10
30807.06805247327
 20
48614.2788293273
 10
30941.18405247327
 20
48825.2598293273
 10
31047.53805247327
 20
48770.0298293273
  0
LWPOLYLINE
  5
2B4
330
76
100
AcDbEntity
  8
0
100
AcDbPolyline
 90
        5
 70
     1
 43
0.0
 10
30846.03705247327
 20
48898.1188293273
 10
30677.32205247327
 20
48713.63182932729
 10
30566.80005247327
 20
48834.0058293273
 10
30764.98805247326
 20
48986.3928293273
 10
30846.03705247327
 20
48898.1188293273
  0
LWPOLYLINE
  5
2BB
330
76
100
AcDbEntity
  8
0
100
AcDbPolyline
 90
        5
 70
     1
 43
0.0
 10
30700.49805247327
 20
49087.39982932731
 10
30478.85905247327
 20
48971.7428293273
 10
30416.17305247327
 20
49122.6578293273
 10
30654.52705247327
 20
49198.0718293273
 10
30700.49805247327
 20
49087.39982932731
  0
LWPOLYLINE
  5
2C2
330
76
100
AcDbEntity
  8
0
100
AcDbPolyline
 90
        5
 70
     1
 43
0.0
 10
30628.47305247327
 20
49315.0438293273
 10
30380.64405247327
 20
49282.1668293273
 10
30373.35305247327
 20
49445.4208293273
 10
30623.12705247327
 20
49434.7638293273
 10
30628.47305247327
 20
49315.0438293273
  0
LWPOLYLINE
  5
2C9
330
76
100
AcDbEntity
  8
0
100
AcDbPolyline
 90
        5
 70
     1
 43
0.0
 10
30674.57305247327
 20
49667.9218293273
 10
30443.50805247327
 20
49763.36282932731
 10
30394.52305247327
 20
49607.4608293273
 10
30638.65005247327
 20
49553.5938293273
 10
30674.57305247327
 20
49667.9218293273
  0
LWPOLYLINE
  5
2D0
330
76
100
AcDbEntity
  8
0
100
AcDbPolyline
 90
        5
 70
     1
 43
0.0
 10
30890.93605247327
 20
49950.47282932731
 10
30738.54805247327
 20
50148.65982932731
 10
30876.28505247327
 20
50236.59982932731
 10
30991.94205247327
 20
50014.9628293273
 10
30890.93605247327
 20
49950.47282932731
  0
LWPOLYLINE
  5
2D7
330
76
100
AcDbEntity
  8
0
100
AcDbPolyline
 90
        5
 70
     1
 43
0.0
 10
31102.61405247327
 20
50060.9338293273
 10
31027.20105247327
 20
50299.28782932731
 10
31186.70805247327
 20
50334.8158293273
 10
31219.58805247327
 20
50086.9878293273
 10
31102.61405247327
 20
50060.9338293273
  0
LWPOLYLINE
  5
2DE
330
76
100
AcDbEntity
  8
0
100
AcDbPolyline
 90
        5
 70
     1
 43
0.0
 10
31339.30705247327
 20
50092.3338293273
 10
31349.96305247327
 20
50342.10682932729
 10
31512.00305247327
 20
50320.9378293273
 10
31458.13605247327
 20
50076.80982932731
 10
31339.30705247327
 20
50092.3338293273
  0
LWPOLYLINE
  5
2E5
330
76
100
AcDbEntity
  8
0
100
AcDbPolyline
 90
        5
 70
     1
 43
0.0
 10
31572.46505247327
 20
50040.8858293273
 10
31667.90505247327
 20
50271.9518293273
 10
31812.93305247327
 20
50196.6378293273
 10
31678.81705247327
 20
49985.6578293273
 10
31572.46505247327
 20
50040.8858293273
  0
LWPOLYLINE
  5
2EC
330
76
100
AcDbEntity
  8
0
100
AcDbPolyline
 90
        5
 70
     1
 43
0.0
 10
30729.80305247327
 20
49774.27482932731
 10
30518.82105247327
 20
49908.3898293273
 10
30618.17405247327
 20
50038.1368293273
 10
30802.66105247327
 20
49869.4228293273
 10
30729.80305247327
 20
49774.27482932731
  0
LWPOLYLINE
  5
2F3
330
76
100
AcDbEntity
  8
0
100
AcDbPolyline
 90
        5
 70
     1
 43
0.0
 10
31855.01505247327
 20
49824.52482932731
 10
32053.20205247327
 20
49976.9108293273
 10
31942.67905247327
 20
50097.28482932731
 10
31773.96505247327
 20
49912.7988293273
 10
31855.01505247327
 20
49824.52482932731
  0
LWPOLYLINE
  5
2FA
330
76
100
AcDbEntity
  8
0
100
AcDbPolyline
 90
        5
 70
     1
 43
0.0
 10
28606.94805247327
 20
47959.24582932729
 10
28458.42305247327
 20
47758.1478293273
 10
28335.93305247326
 20
47866.3208293273
 10
28517.12105247327
 20
48038.5738293273
 10
28606.94805247327
 20
47959.24582932729
  0
LWPOLYLINE
  5
301
330
76
100
AcDbEntity
  8
0
100
AcDbPolyline
 90
        5
 70
     1
 43
0.0
 10
28442.43505247327
 20
48132.29282932731
 10
28234.08805247327
 20
47994.1208293273
 10
28155.98305247327
 20
48137.66382932731
 10
28385.15905247327
 20
48237.55782932731
 10
28442.43505247327
 20
48132.29282932731
  0
LWPOLYLINE
  5
308
330
76
100
AcDbEntity
  8
0
100
AcDbPolyline
 90
        5
 70
     1
 43
0.0
 10
28347.03005247327
 20
48351.1698293273
 10
28103.99005247327
 20
48292.5888293273
 10
28079.69005247327
 20
48454.18982932731
 10
28329.21005247327
 20
48469.6768293273
 10
28347.03005247327
 20
48351.1698293273
  0
LWPOLYLINE
  5
30F
330
76
100
AcDbEntity
  8
0
100
AcDbPolyline
 90
        5
 70
     1
 43
0.0
 10
28332.23905247327
 20
48589.4778293273
 10
28083.82005247327
 20
48617.55482932731
 10
28116.25605247327
 20
48777.7198293273
 10
28356.02505247327
 20
48706.9318293273
 10
28332.23905247327
 20
48589.4778293273
  0
LWPOLYLINE
  5
316
330
76
100
AcDbEntity
  8
0
100
AcDbPolyline
 90
        5
 70
     1
 43
0.0
 10
28462.37005247327
 20
48920.7088293273
 10
28261.27105247327
 20
49069.23282932731
 10
28176.01105247327
 20
48929.81982932731
 10
28399.84605247327
 20
48818.47282932731
 10
28462.37005247327
 20
48920.7088293273
  0
LWPOLYLINE
  5
31D
330
76
100
AcDbEntity
  8
0
100
AcDbPolyline
 90
        5
 70
     1
 43
0.0
 10
28740.68105247327
 20
49142.4978293273
 10
28640.78705247327
 20
49371.67282932731
 10
28795.71205247327
 20
49423.66582932731
 10
28854.29305247327
 20
49180.6258293273
 10
28740.68105247327
 20
49142.4978293273
  0
LWPOLYLINE
  5
324
330
76
100
AcDbEntity
  8
0
100
AcDbPolyline
 90
        5
 70
     1
 43
0.0
 10
28972.80005247327
 20
49198.4458293273
 10
28957.31305247327
 20
49447.9658293273
 10
29120.67705247327
 20
49443.83482932731
 10
29092.60105247327
 20
49195.4168293273
 10
28972.80005247327
 20
49198.4458293273
  0
LWPOLYLINE
  5
32B
330
76
100
AcDbEntity
  8
0
100
AcDbPolyline
 90
        5
 70
     1
 43
0.0
 10
29210.05605247327
 20
49171.6308293273
 10
29280.84305247327
 20
49411.39982932731
 10
29432.94305247327
 20
49351.6438293273
 10
29321.59505247327
 20
49127.80982932731
 10
29210.05605247327
 20
49171.6308293273
  0
LWPOLYLINE
  5
332
330
76
100
AcDbEntity
  8
0
100
AcDbPolyline
 90
        5
 70
     1
 43
0.0
 10
29423.83205247327
 20
49065.28682932729
 10
29572.35605247327
 20
49266.38482932731
 10
29694.84505247327
 20
49158.2118293273
 10
29513.65705247327
 20
48985.95982932731
 10
29423.83205247327
 20
49065.28682932729
  0
LWPOLYLINE
  5
339
330
76
100
AcDbEntity
  8
0
100
AcDbPolyline
 90
        5
 70
     1
 43
0.0
 10
28541.69605247327
 20
49010.5338293273
 10
28369.44405247327
 20
49191.72282932731
 10
28497.24305247327
 20
49293.56782932731
 10
28635.41605247327
 20
49085.21982932731
 10
28541.69605247327
 20
49010.5338293273
  0
LWPOLYLINE
  5
340
330
76
100
AcDbEntity
  8
0
100
AcDbPolyline
 90
        5
 70
     1
 43
0.0
 10
29645.62105247327
 20
48786.9748293273
 10
29874.79605247327
 20
48886.8688293273
 10
29796.69005247327
 20
49030.41282932731
 10
29588.34405247327
 20
48892.2408293273
 10
29645.62105247327
 20
48786.9748293273
  0
LWPOLYLINE
  5
347
330
76
100
AcDbEntity
  8
0
100
AcDbPolyline
 90
       80
 70
     1
 43
0.0
 10
37871.64405247327
 20
46104.95482932731
 10
37871.64405247327
 20
46175.4068293273
 10
37871.64405247327
 20
46215.7508293273
 10
37831.51605247327
 20
46217.80382932731
 10
30624.77205247327
 20
45862.8528293273
 10
29977.43505247327
 20
45100.6488293273
 10
29957.42105247327
 20
45109.50082932731
 10
29870.84205247327
 20
45135.7638293273
 10
29780.80405247327
 20
45144.6318293273
 10
29690.76505247327
 20
45135.7638293273
 10
29604.18605247327
 20
45109.50082932731
 10
29524.39505247327
 20
45066.8518293273
 10
29454.45705247327
 20
45009.4548293273
 10
29397.06105247327
 20
44939.51782932731
 10
29354.41205247327
 20
44859.7258293273
 10
29328.14805247327
 20
44773.1478293273
 10
29319.28005247327
 20
44683.10882932731
 10
29328.14805247327
 20
44593.06982932731
 10
29354.41205247327
 20
44506.4918293273
 10
29397.06105247327
 20
44426.69982932731
 10
29454.45705247327
 20
44356.76282932731
 10
29524.39505247327
 20
44299.3658293273
 10
29604.18605247327
 20
44256.7168293273
 10
29690.76505247327
 20
44230.4538293273
 10
29780.80405247327
 20
44221.58582932731
 10
29870.84205247327
 20
44230.4538293273
 10
29957.42105247327
 20
44256.7168293273
 10
30037.21205247327
 20
44299.3658293273
 10
30107.15005247327
 20
44356.76282932731
 10
30164.54605247327
 20
44426.69982932731
 10
30207.19605247327
 20
44506.4918293273
 10
30233.45905247327
 20
44593.06982932731
 10
30242.32705247327
 20
44683.10882932731
 10
30233.45905247327
 20
44773.1478293273
 10
30207.19605247327
 20
44859.7258293273
 10
30164.54605247327
 20
44939.51782932731
 10
30153.08605247327
 20
44955.88982932731
 10
30800.42405247327
 20
45718.09382932729
 10
35905.63105247327
 20
46065.9198293273
 10
36450.51005247327
 20
46106.1428293273
 10
37841.68305247327
 20
46187.2838293273
 10
37841.64405247327
 20
46134.95482932731
 10
36411.31005247327
 20
45809.8188293273
 10
35761.19005247327
 20
45668.31982932731
 10
31893.81205247327
 20
45188.6638293273
 10
31888.45005247327
 20
43285.16582932731
 10
31809.34005247327
 20
43260.4608293273
 10
31729.63405247327
 20
43217.8568293273
 10
31659.77105247327
 20
43160.5218293273
 10
31602.43605247327
 20
43090.65882932729
 10
31559.83205247327
 20
43010.9528293273
 10
31533.59705247327
 20
42924.46682932729
 10
31524.73805247327
 20
42834.5238293273
 10
31533.59705247327
 20
42744.5818293273
 10
31559.83205247327
 20
42658.09482932731
 10
31602.43605247327
 20
42578.3888293273
 10
31659.77105247327
 20
42508.5258293273
 10
31729.63405247327
 20
42451.1908293273
 10
31809.34005247327
 20
42408.5868293273
 10
31895.82605247327
 20
42382.3518293273
 10
31985.76905247327
 20
42373.4938293273
 10
32075.71105247327
 20
42382.3518293273
 10
32162.19705247327
 20
42408.5868293273
 10
32241.90405247327
 20
42451.1908293273
 10
32311.76705247327
 20
42508.5258293273
 10
32369.10205247327
 20
42578.3888293273
 10
32411.70505247327
 20
42658.09482932731
 10
32437.94105247327
 20
42744.5818293273
 10
32446.79905247327
 20
42834.5238293273
 10
32437.94105247327
 20
42924.46682932729
 10
32411.70505247327
 20
43010.9528293273
 10
32369.10205247327
 20
43090.65882932729
 10
32311.76705247327
 20
43160.5218293273
 10
32241.90405247327
 20
43217.8568293273
 10
32162.19705247327
 20
43260.4608293273
 10
32088.44605247327
 20
43283.9748293273
 10
32101.69405247327
 20
44990.8508293273
 10
35802.52905247327
 20
45577.2638293273
 10
37841.64405247327
 20
46104.95482932731
 10
37871.64405247327
 20
46104.95482932731
  0
LWPOLYLINE
  5
399
330
76
100
AcDbEntity
  8
0
100
AcDbPolyline
 90
        5
 70
     1
 43
0.0
 10
31297.15505247327
 20
42976.4178293273
 10
31056.06305247327
 20
43042.5588293273
 10
31026.72805247327
 20
42881.7958293273
 10
31275.64305247326
 20
42858.52482932731
 10
31297.15505247327
 20
42976.4178293273
  0
LWPOLYLINE
  5
3A0
330
76
100
AcDbEntity
  8
0
100
AcDbPolyline
 90
        5
 70
     1
 43
0.0
 10
31274.93005247327
 20
42738.6878293273
 10
31025.75505247327
 20
42718.3818293273
 10
31053.17405247327
 20
42557.2818293273
 10
31295.03705247327
 20
42620.5478293273
 10
31274.93005247327
 20
42738.6878293273
  0
LWPOLYLINE
  5
3A7
330
76
100
AcDbEntity
  8
0
100
AcDbPolyline
 90
        5
 70
     1
 43
0.0
 10
31335.35205247327
 20
42507.6938293273
 10
31108.15005247327
 20
42403.38982932731
 10
31189.01505247327
 20
42261.3828293273
 10
31394.65305247327
 20
42403.55482932731
 10
31335.35205247327
 20
42507.6938293273
  0
LWPOLYLINE
  5
3AE
330
76
100
AcDbEntity
  8
0
100
AcDbPolyline
 90
        5
 70
     1
 43
0.0
 10
31471.13605247327
 20
42311.2958293273
 10
31293.31005247327
 20
42135.5748293273
 10
31417.86705247327
 20
42029.78882932731
 10
31562.47805247327
 20
42233.7198293273
 10
31471.13605247327
 20
42311.2958293273
  0
LWPOLYLINE
  5
3B5
330
76
100
AcDbEntity
  8
0
100
AcDbPolyline
 90
        5
 70
     1
 43
0.0
 10
31778.26905247327
 20
42131.5258293273
 10
31712.12805247327
 20
41890.4338293273
 10
31558.90105247327
 20
41947.2388293273
 10
31665.90405247327
 20
42173.18282932731
 10
31778.26905247327
 20
42131.5258293273
  0
LWPOLYLINE
  5
3BC
330
76
100
AcDbEntity
  8
0
100
AcDbPolyline
 90
        5
 70
     1
 43
0.0
 10
32134.13905247327
 20
42129.40682932731
 10
32197.40505247327
 20
41887.5438293273
 10
32351.29605247327
 20
41942.5208293273
 10
32246.99305247326
 20
42169.7228293273
 10
32134.13905247327
 20
42129.40682932731
  0
LWPOLYLINE
  5
3C3
330
76
100
AcDbEntity
  8
0
100
AcDbPolyline
 90
        5
 70
     1
 43
0.0
 10
32351.13205247327
 20
42229.0238293273
 10
32493.30405247326
 20
42023.3858293273
 10
32619.11105247327
 20
42127.6808293273
 10
32443.39105247327
 20
42305.50682932729
 10
32351.13205247327
 20
42229.0238293273
  0
LWPOLYLINE
  5
3CA
330
76
100
AcDbEntity
  8
0
100
AcDbPolyline
 90
        5
 70
     1
 43
0.0
 10
32520.96705247327
 20
42396.8488293273
 10
32724.89805247327
 20
42252.2378293273
 10
32807.44705247327
 20
42393.27182932729
 10
32581.50305247327
 20
42500.2738293273
 10
32520.96705247327
 20
42396.8488293273
  0
LWPOLYLINE
  5
3D1
330
76
100
AcDbEntity
  8
0
100
AcDbPolyline
 90
        5
 70
     1
 43
0.0
 10
32623.16105247327
 20
42612.63982932731
 10
32864.25205247327
 20
42546.49882932731
 10
32893.58705247327
 20
42707.2608293273
 10
32644.67305247326
 20
42730.5318293273
 10
32623.16105247327
 20
42612.63982932731
  0
LWPOLYLINE
  5
3D8
330
76
100
AcDbEntity
  8
0
100
AcDbPolyline
 90
        5
 70
     1
 43
0.0
 10
31896.16105247327
 20
42110.0138293273
 10
31872.89005247327
 20
41861.0988293273
 10
32036.30405247327
 20
41860.1258293273
 10
32015.99805247327
 20
42109.2998293273
 10
31896.16105247327
 20
42110.0138293273
  0
LWPOLYLINE
  5
3DF
330
76
100
AcDbEntity
  8
0
100
AcDbPolyline
 90
        5
 70
     1
 43
0.0
 10
32625.28005247327
 20
42968.50982932731
 10
32867.14205247327
 20
43031.77582932731
 10
32894.56005247326
 20
42870.6748293273
 10
32645.38705247327
 20
42850.3688293273
 10
32625.28005247327
 20
42968.50982932731
  0
LWPOLYLINE
  5
3E6
330
76
100
AcDbEntity
  8
0
100
AcDbPolyline
 90
        5
 70
     1
 43
0.0
 10
29366.28505247327
 20
45199.4008293273
 10
29220.16605247327
 20
45402.2538293273
 10
29096.39605247327
 20
45295.5468293273
 10
29275.52105247327
 20
45121.14882932729
 10
29366.28505247327
 20
45199.4008293273
  0
LWPOLYLINE
  5
3ED
330
76
100
AcDbEntity
  8
0
100
AcDbPolyline
 90
        5
 70
     1
 43
0.0
 10
29199.72405247327
 20
45028.3248293273
 10
28993.03705247327
 20
45168.9688293273
 10
28913.22805247327
 20
45026.3658293273
 10
29141.19805247326
 20
44923.74982932731
 10
29199.72405247327
 20
45028.3248293273
  0
LWPOLYLINE
  5
3F4
330
76
100
AcDbEntity
  8
0
100
AcDbPolyline
 90
        5
 70
     1
 43
0.0
 10
29101.71905247326
 20
44810.5998293273
 10
28859.39405247327
 20
44872.06982932731
 10
28833.17205247327
 20
44710.7708293273
 10
29082.48905247327
 20
44692.3138293273
 10
29101.71905247326
 20
44810.5998293273
  0
LWPOLYLINE
  5
3FB
330
76
100
AcDbEntity
  8
0
100
AcDbPolyline
 90
        5
 70
     1
 43
0.0
 10
29084.09205247327
 20
44572.48482932731
 10
28835.35605247327
 20
44547.3688293273
 10
28865.88305247327
 20
44386.8278293273
 10
29106.47705247327
 20
44454.7558293273
 10
29084.09205247327
 20
44572.48482932731
  0
LWPOLYLINE
  5
402
330
76
100
AcDbEntity
  8
0
100
AcDbPolyline
 90
        5
 70
     1
 43
0.0
 10
29210.26905247327
 20
44239.72782932731
 10
29007.41605247327
 20
44093.6088293273
 10
28923.82205247327
 20
44234.0268293273
 10
29148.96705247327
 20
44342.7008293273
 10
29210.26905247327
 20
44239.72782932731
  0
LWPOLYLINE
  5
409
330
76
100
AcDbEntity
  8
0
100
AcDbPolyline
 90
        5
 70
     1
 43
0.0
 10
29485.92005247327
 20
44014.6408293273
 10
29383.30305247327
 20
43786.6708293273
 10
29537.59805247327
 20
43732.8378293273
 10
29599.06905247327
 20
43975.16182932729
 10
29485.92005247327
 20
44014.6408293273
  0
LWPOLYLINE
  5
410
330
76
100
AcDbEntity
  8
0
100
AcDbPolyline
 90
        5
 70
     1
 43
0.0
 10
29717.35605247327
 20
43955.9318293273
 10
29698.89805247327
 20
43706.61482932731
 10
29862.30005247327
 20
43708.7998293273
 10
29837.18405247326
 20
43957.53382932729
 10
29717.35605247327
 20
43955.9318293273
  0
LWPOLYLINE
  5
417
330
76
100
AcDbEntity
  8
0
100
AcDbPolyline
 90
        5
 70
     1
 43
0.0
 10
29954.91405247327
 20
43979.9198293273
 10
30022.84105247327
 20
43739.3258293273
 10
30175.64105247327
 20
43797.2658293273
 10
30066.96705247327
 20
44022.4098293273
 10
29954.91405247327
 20
43979.9198293273
  0
LWPOLYLINE
  5
41E
330
76
100
AcDbEntity
  8
0
100
AcDbPolyline
 90
        5
 70
     1
 43
0.0
 10
30169.94105247327
 20
44083.7118293273
 10
30316.06005247327
 20
43880.8588293273
 10
30439.82905247327
 20
43987.56582932731
 10
30260.70505247327
 20
44161.9628293273
 10
30169.94105247327
 20
44083.7118293273
  0
LWPOLYLINE
  5
425
330
76
100
AcDbEntity
  8
0
100
AcDbPolyline
 90
        5
 70
     1
 43
0.0
 10
29288.52005247327
 20
44148.9638293273
 10
29114.12205247327
 20
43969.8398293273
 10
29240.70005247327
 20
43866.4798293273
 10
29381.34305247327
 20
44073.1678293273
 10
29288.52005247327
 20
44148.9638293273
  0
LWPOLYLINE
  5
42C
330
76
100
AcDbEntity
  8
0
100
AcDbPolyline
 90
        5
 70
     1
 43
0.0
 10
30395.02905247327
 20
44359.3618293273
 10
30622.99805247327
 20
44256.74682932729
 10
30543.18805247327
 20
44114.14282932731
 10
30336.50205247327
 20
44254.7858293273
 10
30395.02905247327
 20
44359.3618293273
  0
LWPOLYLINE
  5
433
330
76
100
AcDbEntity
  8
0
100
AcDbPolyline
 90
        5
 70
     1
 43
0.0
 10
37374.84705247327
 20
40041.90682932731
 10
37126.47705247327
 20
40070.4118293273
 10
37122.06505247327
 20
39907.05382932731
 10
37371.61205247327
 20
39922.11082932731
 10
37374.84705247327
 20
40041.90682932731
  0
LWPOLYLINE
  5
43A
330
76
100
AcDbEntity
  8
0
100
AcDbPolyline
 90
        5
 70
     1
 43
0.0
 10
37389.22805247327
 20
39803.5738293273
 10
37146.08705247327
 20
39745.4118293273
 10
37197.81305247326
 20
39590.3978293273
 10
37427.16005247327
 20
39689.89682932731
 10
37389.22805247327
 20
39803.5738293273
  0
LWPOLYLINE
  5
441
330
76
100
AcDbEntity
  8
0
100
AcDbPolyline
 90
        5
 70
     1
 43
0.0
 10
37484.25505247327
 20
39584.53282932731
 10
37275.67005247327
 20
39446.7198293273
 10
37377.29505247327
 20
39318.74482932731
 10
37558.78005247327
 20
39490.6838293273
 10
37484.25505247327
 20
39584.53282932731
  0
LWPOLYLINE
  5
448
330
76
100
AcDbEntity
  8
0
100
AcDbPolyline
 90
        5
 70
     1
 43
0.0
 10
37648.46905247327
 20
39411.2028293273
 10
37499.59805247327
 20
39210.36082932731
 10
37638.86405247327
 20
39124.86082932731
 10
37750.59705247327
 20
39348.50282932731
 10
37648.46905247327
 20
39411.2028293273
  0
LWPOLYLINE
  5
44F
330
76
100
AcDbEntity
  8
0
100
AcDbPolyline
 90
        5
 70
     1
 43
0.0
 10
37979.47505247327
 20
39280.50182932731
 10
37950.97005247327
 20
39032.13182932731
 10
37790.86005247327
 20
39064.84282932731
 10
37862.06205247327
 20
39304.48982932731
 10
37979.47505247327
 20
39280.50182932731
  0
LWPOLYLINE
  5
456
330
76
100
AcDbEntity
  8
0
100
AcDbPolyline
 90
        5
 70
     1
 43
0.0
 10
38331.48505247327
 20
39332.8138293273
 10
38430.98405247327
 20
39103.46682932731
 10
38574.66105247327
 20
39181.32482932731
 10
38436.84905247327
 20
39389.9088293273
 10
38331.48505247327
 20
39332.8138293273
  0
LWPOLYLINE
  5
45D
330
76
100
AcDbEntity
  8
0
100
AcDbPolyline
 90
        5
 70
     1
 43
0.0
 10
38530.69805247327
 20
39464.4338293273
 10
38702.63705247327
 20
39282.94982932731
 10
38811.02005247327
 20
39405.2518293273
 10
38610.17905247327
 20
39554.12282932731
 10
38530.69805247327
 20
39464.4338293273
  0
LWPOLYLINE
  5
464
330
76
100
AcDbEntity
  8
0
100
AcDbPolyline
 90
        5
 70
     1
 43
0.0
 10
38672.87905247327
 20
39656.25082932731
 10
38896.52105247327
 20
39544.51782932731
 10
38956.53805247327
 20
39696.51382932731
 10
38716.89105247327
 20
39767.7158293273
 10
38672.87905247327
 20
39656.25082932731
  0
LWPOLYLINE
  5
46B
330
76
100
AcDbEntity
  8
0
100
AcDbPolyline
 90
        5
 70
     1
 43
0.0
 10
38740.88005247326
 20
39885.12882932731
 10
38989.24905247326
 20
39856.6248293273
 10
38993.66105247327
 20
40019.9818293273
 10
38744.11605247327
 20
40004.9238293273
 10
38740.88005247326
 20
39885.12882932731
  0
LWPOLYLINE
  5
472
330
76
100
AcDbEntity
  8
0
100
AcDbPolyline
 90
        5
 70
     1
 43
0.0
 10
38099.27005247327
 20
39277.26582932731
 10
38114.32705247328
 20
39027.7198293273
 10
38275.96905247327
 20
39051.74082932731
 10
38217.80705247327
 20
39294.88182932731
 10
38099.27005247327
 20
39277.26582932731
  0
LWPOLYLINE
  5
479
330
76
100
AcDbEntity
  8
0
100
AcDbPolyline
 90
        5
 70
     1
 43
0.0
 10
38688.56805247327
 20
40237.1398293273
 10
38917.91405247327
 20
40336.6388293273
 10
38969.64005247327
 20
40181.6228293273
 10
38726.50005247327
 20
40123.46182932731
 10
38688.56805247327
 20
40237.1398293273
  0
LWPOLYLINE
  5
480
330
76
100
AcDbEntity
  8
0
100
AcDbPolyline
 90
        5
 70
     1
 43
0.0
 10
41754.33105247326
 20
47945.41582932731
 10
41941.55105247326
 20
47779.73982932731
 10
42038.77105247326
 20
47911.09182932729
 10
41825.62505247326
 20
48041.7418293273
 10
41754.33105247326
 20
47945.41582932731
  0
LWPOLYLINE
  5
487
330
76
100
AcDbEntity
  8
0
100
AcDbPolyline
 90
        5
 70
     1
 43
0.0
 10
41879.10905247327
 20
48148.98382932731
 10
42111.70405247327
 20
48057.3308293273
 10
42158.13505247327
 20
48214.01282932731
 10
41913.15905247327
 20
48263.8838293273
 10
41879.10905247327
 20
48148.98382932731
  0
LWPOLYLINE
  5
48E
330
76
100
AcDbEntity
  8
0
100
AcDbPolyline
 90
        5
 70
     1
 43
0.0
 10
41926.74005247326
 20
48382.9508293273
 10
42176.65405247327
 20
48376.3768293273
 10
42166.69605247326
 20
48539.4908293273
 10
41919.43805247326
 20
48502.5678293273
 10
41926.74005247326
 20
48382.9508293273
  0
LWPOLYLINE
  5
495
330
76
100
AcDbEntity
  8
0
100
AcDbPolyline
 90
        5
 70
     1
 43
0.0
 10
41891.47605247326
 20
48619.0988293273
 10
42128.56605247327
 20
48698.39682932729
 10
42063.42105247326
 20
48848.2678293273
 10
41843.70305247327
 20
48729.0038293273
 10
41891.47605247326
 20
48619.0988293273
  0
LWPOLYLINE
  5
49C
330
76
100
AcDbEntity
  8
0
100
AcDbPolyline
 90
        5
 70
     1
 43
0.0
 10
41695.08905247327
 20
48915.88182932729
 10
41860.76605247326
 20
49103.1018293273
 10
41973.24205247326
 20
48984.5498293273
 10
41777.57005247326
 20
48828.94482932731
 10
41695.08905247327
 20
48915.88182932729
  0
LWPOLYLINE
  5
4A3
330
76
100
AcDbEntity
  8
0
100
AcDbPolyline
 90
        5
 70
     1
 43
0.0
 10
41376.62205247327
 20
49074.71082932731
 10
41426.49305247326
 20
49319.6868293273
 10
41264.12905247327
 20
49338.20382932729
 10
41257.55505247327
 20
49088.2908293273
 10
41376.62205247327
 20
49074.71082932731
  0
LWPOLYLINE
  5
4AA
330
76
100
AcDbEntity
  8
0
100
AcDbPolyline
 90
        5
 70
     1
 43
0.0
 10
41137.93805247326
 20
49080.9888293273
 10
41101.01505247326
 20
49328.2468293273
 10
40942.10905247326
 20
49290.1158293273
 10
41021.40705247326
 20
49053.0268293273
 10
41137.93805247326
 20
49080.9888293273
  0
LWPOLYLINE
  5
4B1
330
76
100
AcDbEntity
  8
0
100
AcDbPolyline
 90
        5
 70
     1
 43
0.0
 10
40911.50205247327
 20
49005.2538293273
 10
40792.23805247326
 20
49224.9718293273
 10
40655.95705247327
 20
49134.7918293273
 10
40811.56205247327
 20
48939.12182932729
 10
40911.50205247327
 20
49005.2538293273
  0
LWPOLYLINE
  5
4B8
330
76
100
AcDbEntity
  8
0
100
AcDbPolyline
 90
        5
 70
     1
 43
0.0
 10
40724.62405247326
 20
48856.6398293273
 10
40537.40505247326
 20
49022.3168293273
 10
40440.18505247326
 20
48890.9648293273
 10
40653.33005247326
 20
48760.3158293273
 10
40724.62405247326
 20
48856.6398293273
  0
LWPOLYLINE
  5
4BF
330
76
100
AcDbEntity
  8
0
100
AcDbPolyline
 90
        5
 70
     1
 43
0.0
 10
41598.76505247327
 20
48987.1758293273
 10
41729.41405247327
 20
49200.3208293273
 10
41583.17505247326
 20
49273.2548293273
 10
41491.52305247326
 20
49040.6608293273
 10
41598.76505247327
 20
48987.1758293273
  0
LWPOLYLINE
  5
4C6
330
76
100
AcDbEntity
  8
0
100
AcDbPolyline
 90
        5
 70
     1
 43
0.0
 10
40565.79505247326
 20
48538.1728293273
 10
40320.82005247326
 20
48588.0438293273
 10
40367.25205247327
 20
48744.7258293273
 10
40599.84505247326
 20
48653.0738293273
 10
40565.79505247326
 20
48538.1728293273
  0
LWPOLYLINE
  5
4CD
330
76
100
AcDbEntity
  8
0
100
AcDbPolyline
 90
       13
 70
     1
 43
0.0
 10
39942.38605247327
 20
46552.0268293273
 10
39838.33105247327
 20
46611.7958293273
 10
40002.69705247326
 20
46897.9488293273
 10
40106.75305247326
 20
46838.1788293273
 10
40226.29305247326
 20
47046.2908293273
 10
40252.30605247327
 20
47031.3478293273
 10
40117.82405247327
 20
46797.22282932731
 10
40013.76805247326
 20
46856.99182932729
 10
39879.28605247327
 20
46622.86682932729
 10
39983.34205247327
 20
46563.09782932731
 10
39848.86105247327
 20
46328.97282932731
 10
39822.84605247327
 20
46343.91482932731
 10
39942.38605247327
 20
46552.0268293273
  0
LWPOLYLINE
  5
4DC
330
76
100
AcDbEntity
  8
0
100
AcDbPolyline
 90
       13
 70
     1
 43
0.0
 10
39874.87405247327
 20
46314.02982932731
 10
40024.29905247327
 20
46574.1688293273
 10
39920.24305247326
 20
46633.9388293273
 10
40024.84005247326
 20
46816.03682932729
 10
40128.89605247327
 20
46756.2658293273
 10
40278.32005247327
 20
47016.4058293273
 10
40304.33405247327
 20
47001.4628293273
 10
40139.96705247327
 20
46715.3098293273
 10
40035.91205247327
 20
46775.07982932731
 10
39961.19905247327
 20
46645.00982932731
 10
40065.25505247326
 20
46585.2408293273
 10
39900.88805247327
 20
46299.0878293273
 10
39874.87405247327
 20
46314.02982932731
  0
LWPOLYLINE
  5
4EB
330
76
100
AcDbEntity
  8
0
100
AcDbPolyline
 90
       13
 70
     1
 43
0.0
 10
39926.90205247327
 20
46284.1448293273
 10
40106.21105247326
 20
46596.3118293273
 10
40002.15605247327
 20
46656.0818293273
 10
40046.98305247327
 20
46734.1238293273
 10
40151.03805247327
 20
46674.3538293273
 10
40330.34805247326
 20
46986.5208293273
 10
40408.39005247327
 20
46941.6938293273
 10
40229.08005247327
 20
46629.5268293273
 10
40333.13605247326
 20
46569.7568293273
 10
40288.30805247326
 20
46491.71482932731
 10
40184.25305247326
 20
46551.48482932731
 10
40004.94405247326
 20
46239.3178293273
 10
39926.90205247327
 20
46284.1448293273
  0
LWPOLYLINE
  5
4FA
330
76
100
AcDbEntity
  8
0
100
AcDbPolyline
 90
       13
 70
     1
 43
0.0
 10
40228.53905247326
 20
46387.6588293273
 10
40332.59405247326
 20
46327.88982932731
 10
40496.96205247326
 20
46614.0418293273
 10
40392.90605247327
 20
46673.8128293273
 10
40512.44505247327
 20
46881.9228293273
 10
40486.43105247327
 20
46896.86682932729
 10
40351.95005247326
 20
46662.7408293273
 10
40456.00505247326
 20
46602.9708293273
 10
40321.52305247326
 20
46368.8458293273
 10
40217.46705247327
 20
46428.6158293273
 10
40082.98505247327
 20
46194.4908293273
 10
40109.00005247327
 20
46179.5478293273
 10
40228.53905247326
 20
46387.6588293273
  0
LWPOLYLINE
  5
509
330
76
100
AcDbEntity
  8
0
100
AcDbPolyline
 90
       13
 70
     1
 43
0.0
 10
40056.97205247327
 20
46209.4318293273
 10
40206.39605247326
 20
46469.5718293273
 10
40310.45205247327
 20
46409.80282932731
 10
40415.04905247326
 20
46591.89982932731
 10
40310.99305247326
 20
46651.6688293273
 10
40460.41705247326
 20
46911.80782932731
 10
40434.40305247326
 20
46926.7518293273
 10
40270.03605247326
 20
46640.59782932731
 10
40374.09205247327
 20
46580.82882932729
 10
40299.38005247326
 20
46450.75882932729
 10
40195.32405247327
 20
46510.5288293273
 10
40030.95805247326
 20
46224.37582932731
 10
40056.97205247327
 20
46209.4318293273
  0
LWPOLYLINE
  5
518
330
76
100
AcDbEntity
  8
0
100
AcDbPolyline
 90
       13
 70
     1
 43
0.0
 10
40592.38405247326
 20
47677.85682932729
 10
40488.59505247326
 20
47738.0868293273
 10
40322.96305247326
 20
47452.66482932731
 10
40426.75305247326
 20
47392.43482932731
 10
40306.29305247326
 20
47184.8548293273
 10
40332.24005247326
 20
47169.7978293273
 10
40467.75805247326
 20
47403.3248293273
 10
40363.96805247327
 20
47463.55482932731
 10
40499.48505247327
 20
47697.08282932731
 10
40603.27505247327
 20
47636.8518293273
 10
40738.79205247327
 20
47870.3788293273
 10
40712.84405247326
 20
47885.4378293273
 10
40592.38405247326
 20
47677.85682932729
  0
LWPOLYLINE
  5
527
330
76
100
AcDbEntity
  8
0
100
AcDbPolyline
 90
       13
 70
     1
 43
0.0
 10
40764.74005247327
 20
47855.3228293273
 10
40614.16505247327
 20
47595.8468293273
 10
40510.37505247326
 20
47656.0778293273
 10
40404.97205247326
 20
47474.4448293273
 10
40508.76305247326
 20
47414.21482932731
 10
40358.18805247326
 20
47154.73982932731
 10
40384.13505247326
 20
47139.6828293273
 10
40549.76805247326
 20
47425.1048293273
 10
40445.97705247326
 20
47485.33482932731
 10
40521.26505247326
 20
47615.0728293273
 10
40625.05505247327
 20
47554.84282932731
 10
40790.68705247327
 20
47840.26482932731
 10
40764.74005247327
 20
47855.3228293273
  0
LWPOLYLINE
  5
536
330
76
100
AcDbEntity
  8
0
100
AcDbPolyline
 90
       13
 70
     1
 43
0.0
 10
40816.63505247327
 20
47825.2078293273
 10
40635.94505247326
 20
47513.8378293273
 10
40532.15505247326
 20
47574.0668293273
 10
40486.98205247327
 20
47496.2248293273
 10
40590.77305247327
 20
47435.9958293273
 10
40410.08305247326
 20
47124.62482932731
 10
40487.92505247327
 20
47079.4528293273
 10
40668.61505247326
 20
47390.82282932731
 10
40772.40405247327
 20
47330.59282932731
 10
40817.57705247327
 20
47408.4358293273
 10
40713.78705247327
 20
47468.6648293273
 10
40894.47805247326
 20
47780.03482932731
 10
40816.63505247327
 20
47825.2078293273
  0
LWPOLYLINE
  5
545
330
76
100
AcDbEntity
  8
0
100
AcDbPolyline
 90
       13
 70
     1
 43
0.0
 10
40877.80805247327
 20
47512.22482932731
 10
40981.59705247327
 20
47451.99482932731
 10
40815.96505247326
 20
47166.57282932731
 10
40712.17505247327
 20
47226.80182932729
 10
40591.71505247326
 20
47019.22282932731
 10
40565.76705247326
 20
47034.27982932731
 10
40701.28505247327
 20
47267.8068293273
 10
40805.07505247326
 20
47207.5778293273
 10
40940.59205247327
 20
47441.10482932731
 10
40836.80205247326
 20
47501.3358293273
 10
40972.32005247327
 20
47734.8628293273
 10
40998.26705247326
 20
47719.80482932731
 10
40877.80805247327
 20
47512.22482932731
  0
LWPOLYLINE
  5
554
330
76
100
AcDbEntity
  8
0
100
AcDbPolyline
 90
       13
 70
     1
 43
0.0
 10
40946.37305247326
 20
47749.9198293273
 10
40795.79705247327
 20
47490.4448293273
 10
40899.58705247326
 20
47430.2148293273
 10
40794.18505247327
 20
47248.5828293273
 10
40690.39505247326
 20
47308.8128293273
 10
40539.82005247326
 20
47049.3378293273
 10
40513.87205247327
 20
47064.3948293273
 10
40679.50505247326
 20
47349.81782932731
 10
40783.29505247326
 20
47289.5878293273
 10
40858.58205247327
 20
47419.3248293273
 10
40754.79205247327
 20
47479.55482932731
 10
40920.42405247326
 20
47764.97682932729
 10
40946.37305247326
 20
47749.9198293273
  0
LWPOLYLINE
  5
563
330
76
100
AcDbEntity
  8
0
100
AcDbPolyline
 90
        5
 70
     1
 43
0.0
 10
39030.10305247327
 20
58361.37096746423
 10
39404.56805247327
 20
58470.34896746423
 10
39312.26905247327
 20
58707.98396746423
 10
38962.41805247327
 20
58535.63696746423
 10
39030.10305247327
 20
58361.37096746423
  0
LWPOLYLINE
  5
56A
330
76
100
AcDbEntity
  8
0
100
AcDbPolyline
 90
        5
 70
     1
 43
0.0
 10
38865.50005247327
 20
58695.50196746423
 10
39180.10905247327
 20
58925.98196746424
 10
39012.10105247327
 20
59117.71896746423
 10
38742.29405247327
 20
58836.10896746423
 10
38865.50005247327
 20
58695.50196746423
  0
LWPOLYLINE
  5
571
330
76
100
AcDbEntity
  8
0
100
AcDbPolyline
 90
        5
 70
     1
 43
0.0
 10
38432.67805247327
 20
59043.17396746423
 10
38589.89705247327
 20
59400.08096746423
 10
38813.35205247327
 20
59277.36896746424
 10
38596.54305247327
 20
58953.18596746422
 10
38432.67805247327
 20
59043.17396746423
  0
LWPOLYLINE
  5
578
330
76
100
AcDbEntity
  8
0
100
AcDbPolyline
 90
        5
 70
     1
 43
0.0
 10
37884.00805247327
 20
59127.85596746423
 10
37841.71105247327
 20
59515.55696746423
 10
37591.65905247327
 20
59465.92496746423
 10
37700.63605247327
 20
59091.46096746423
 10
37884.00805247327
 20
59127.85596746423
  0
LWPOLYLINE
  5
57F
330
76
100
AcDbEntity
  8
0
100
AcDbPolyline
 90
        5
 70
     1
 43
0.0
 10
37526.36905247327
 20
59023.77496746423
 10
37354.02205247327
 20
59373.62696746423
 10
37136.02605247327
 20
59241.46596746422
 10
37366.50405247327
 20
58926.85796746423
 10
37526.36905247327
 20
59023.77496746423
  0
LWPOLYLINE
  5
586
330
76
100
AcDbEntity
  8
0
100
AcDbPolyline
 90
        5
 70
     1
 43
0.0
 10
37225.89805247327
 20
58803.65196746423
 10
36944.28705247327
 20
59073.45896746424
 10
36784.63905247327
 20
58874.70896746423
 10
37108.82205247327
 20
58657.90196746423
 10
37225.89805247327
 20
58803.65196746423
  0
LWPOLYLINE
  5
58D
330
76
100
AcDbEntity
  8
0
100
AcDbPolyline
 90
        5
 70
     1
 43
0.0
 10
37018.83205247327
 20
58494.03596746423
 10
36661.92705247327
 20
58651.25496746423
 10
36579.88205247328
 20
58409.88796746422
 10
36958.66605247327
 20
58317.03396746424
 10
37018.83205247327
 20
58494.03596746423
  0
LWPOLYLINE
  5
594
330
76
100
AcDbEntity
  8
0
100
AcDbPolyline
 90
        5
 70
     1
 43
0.0
 10
38255.67605247327
 20
59103.33996746423
 10
38348.53105247327
 20
59482.12596746422
 10
38096.58405247327
 20
59521.01196746423
 10
38070.91505247327
 20
59131.85696746423
 10
38255.67605247327
 20
59103.33996746423
  0
LWPOLYLINE
  5
59B
330
76
100
AcDbEntity
  8
0
100
AcDbPolyline
 90
        5
 70
     1
 43
0.0
 10
38046.64205247327
 20
46375.7508293273
 10
38146.64205247327
 20
46375.7508293273
 10
38146.64205247327
 20
46395.7508293273
 10
38046.64205247327
 20
46395.7508293273
 10
38046.64205247327
 20
46375.7508293273
  0
LWPOLYLINE
  5
5A2
330
76
100
AcDbEntity
  8
0
100
AcDbPolyline
 90
        5
 70
     1
 43
0.0
 10
38046.64205247327
 20
46455.7508293273
 10
38146.64205247327
 20
46455.7508293273
 10
38146.64205247327
 20
46475.7508293273
 10
38046.64205247327
 20
46475.7508293273
 10
38046.64205247327
 20
46455.7508293273
  0
LWPOLYLINE
  5
5A9
330
76
100
AcDbEntity
  8
0
100
AcDbPolyline
 90
        5
 70
     1
 43
0.0
 10
38046.64205247327
 20
46535.7508293273
 10
38146.64205247327
 20
46535.7508293273
 10
38146.64205247327
 20
46555.7508293273
 10
38046.64205247327
 20
46555.7508293273
 10
38046.64205247327
 20
46535.7508293273
  0
LWPOLYLINE
  5
5B0
330
76
100
AcDbEntity
  8
0
100
AcDbPolyline
 90
        5
 70
     1
 43
0.0
 10
38046.64205247327
 20
46615.7508293273
 10
38146.64205247327
 20
46615.7508293273
 10
38146.64205247327
 20
46635.7508293273
 10
38046.64205247327
 20
46635.7508293273
 10
38046.64205247327
 20
46615.7508293273
  0
LWPOLYLINE
  5
5B7
330
76
100
AcDbEntity
  8
0
100
AcDbPolyline
 90
        5
 70
     1
 43
0.0
 10
38046.64205247327
 20
46695.7508293273
 10
38146.64205247327
 20
46695.7508293273
 10
38146.64205247327
 20
46715.7508293273
 10
38046.64205247327
 20
46715.7508293273
 10
38046.64205247327
 20
46695.7508293273
  0
LWPOLYLINE
  5
5BE
330
76
100
AcDbEntity
  8
0
100
AcDbPolyline
 90
        5
 70
     1
 43
0.0
 10
38046.64205247327
 20
46775.7508293273
 10
38146.64205247327
 20
46775.7508293273
 10
38146.64205247327
 20
46795.7508293273
 10
38046.64205247327
 20
46795.7508293273
 10
38046.64205247327
 20
46775.7508293273
  0
LWPOLYLINE
  5
5C5
330
76
100
AcDbEntity
  8
0
100
AcDbPolyline
 90
        5
 70
     1
 43
0.0
 10
38046.64205247327
 20
46855.7508293273
 10
38146.64205247327
 20
46855.7508293273
 10
38146.64205247327
 20
46875.7508293273
 10
38046.64205247327
 20
46875.7508293273
 10
38046.64205247327
 20
46855.7508293273
  0
LWPOLYLINE
  5
B8A
330
76
100
AcDbEntity
  8
0
100
AcDbPolyline
 90
        5
 70
     1
 43
0.0
 10
38046.64205247327
 20
46355.75082932731
 10
38206.64205247327
 20
46355.75082932731
 10
38206.64205247327
 20
46335.7508293273
 10
38046.64205247327
 20
46335.7508293273
 10
38046.64205247327
 20
46355.75082932731
  0
LWPOLYLINE
  5
B91
330
76
100
AcDbEntity
  8
0
100
AcDbPolyline
 90
        5
 70
     1
 43
0.0
 10
38046.64205247327
 20
46435.75082932731
 10
38206.64205247327
 20
46435.75082932731
 10
38206.64205247327
 20
46415.7508293273
 10
38046.64205247327
 20
46415.7508293273
 10
38046.64205247327
 20
46435.75082932731
  0
LWPOLYLINE
  5
B98
330
76
100
AcDbEntity
  8
0
100
AcDbPolyline
 90
        5
 70
     1
 43
0.0
 10
38046.64205247327
 20
46515.75082932731
 10
38206.64205247327
 20
46515.75082932731
 10
38206.64205247327
 20
46495.7508293273
 10
38046.64205247327
 20
46495.7508293273
 10
38046.64205247327
 20
46515.75082932731
  0
LWPOLYLINE
  5
B9F
330
76
100
AcDbEntity
  8
0
100
AcDbPolyline
 90
        5
 70
     1
 43
0.0
 10
38046.64205247327
 20
46595.75082932731
 10
38206.64205247327
 20
46595.75082932731
 10
38206.64205247327
 20
46575.7508293273
 10
38046.64205247327
 20
46575.7508293273
 10
38046.64205247327
 20
46595.75082932731
  0
LWPOLYLINE
  5
BA6
330
76
100
AcDbEntity
  8
0
100
AcDbPolyline
 90
        5
 70
     1
 43
0.0
 10
38046.64205247327
 20
46675.75082932731
 10
38206.64205247327
 20
46675.75082932731
 10
38206.64205247327
 20
46655.7508293273
 10
38046.64205247327
 20
46655.7508293273
 10
38046.64205247327
 20
46675.75082932731
  0
LWPOLYLINE
  5
BAD
330
76
100
AcDbEntity
  8
0
100
AcDbPolyline
 90
        5
 70
     1
 43
0.0
 10
38046.64205247327
 20
46755.75082932731
 10
38206.64205247327
 20
46755.75082932731
 10
38206.64205247327
 20
46735.7508293273
 10
38046.64205247327
 20
46735.7508293273
 10
38046.64205247327
 20
46755.75082932731
  0
LWPOLYLINE
  5
BB4
330
76
100
AcDbEntity
  8
0
100
AcDbPolyline
 90
        5
 70
     1
 43
0.0
 10
38046.64205247327
 20
46835.75082932731
 10
38206.64205247327
 20
46835.75082932731
 10
38206.64205247327
 20
46815.7508293273
 10
38046.64205247327
 20
46815.7508293273
 10
38046.64205247327
 20
46835.75082932731
  0
LWPOLYLINE
  5
BBB
330
76
100
AcDbEntity
  8
0
100
AcDbPolyline
 90
        5
 70
     1
 43
0.0
 10
38046.64205247327
 20
46915.75082932731
 10
38206.64205247327
 20
46915.75082932731
 10
38206.64205247327
 20
46895.7508293273
 10
38046.64205247327
 20
46895.7508293273
 10
38046.64205247327
 20
46915.75082932731
  0
LWPOLYLINE
  5
BC2
330
76
100
AcDbEntity
  8
0
100
AcDbPolyline
 90
        5
 70
     1
 43
0.0
 10
38046.54505247327
 20
46095.7508293273
 10
38146.54505247327
 20
46095.7508293273
 10
38146.54505247327
 20
46075.7508293273
 10
38046.54505247327
 20
46075.7508293273
 10
38046.54505247327
 20
46095.7508293273
  0
LWPOLYLINE
  5
BC9
330
76
100
AcDbEntity
  8
0
100
AcDbPolyline
 90
        5
 70
     1
 43
0.0
 10
38046.54505247327
 20
46015.7508293273
 10
38146.54505247327
 20
46015.7508293273
 10
38146.54505247327
 20
45995.7508293273
 10
38046.54505247327
 20
45995.7508293273
 10
38046.54505247327
 20
46015.7508293273
  0
LWPOLYLINE
  5
BD0
330
76
100
AcDbEntity
  8
0
100
AcDbPolyline
 90
        5
 70
     1
 43
0.0
 10
38046.54505247327
 20
45935.7508293273
 10
38146.54505247327
 20
45935.7508293273
 10
38146.54505247327
 20
45915.7508293273
 10
38046.54505247327
 20
45915.7508293273
 10
38046.54505247327
 20
45935.7508293273
  0
LWPOLYLINE
  5
BD7
330
76
100
AcDbEntity
  8
0
100
AcDbPolyline
 90
        5
 70
     1
 43
0.0
 10
38074.78505247327
 20
45855.7508293273
 10
38174.78505247327
 20
45855.7508293273
 10
38174.78505247327
 20
45835.7508293273
 10
38074.78505247327
 20
45835.7508293273
 10
38074.78505247327
 20
45855.7508293273
  0
LWPOLYLINE
  5
BDE
330
76
100
AcDbEntity
  8
0
100
AcDbPolyline
 90
        5
 70
     1
 43
0.0
 10
38086.64105247327
 20
45775.7508293273
 10
38186.64105247327
 20
45775.7508293273
 10
38186.64105247327
 20
45755.7508293273
 10
38086.64105247327
 20
45755.7508293273
 10
38086.64105247327
 20
45775.7508293273
  0
LWPOLYLINE
  5
BE5
330
76
100
AcDbEntity
  8
0
100
AcDbPolyline
 90
        5
 70
     1
 43
0.0
 10
38086.64105247327
 20
45695.7508293273
 10
38186.64105247327
 20
45695.7508293273
 10
38186.64105247327
 20
45675.7508293273
 10
38086.64105247327
 20
45675.7508293273
 10
38086.64105247327
 20
45695.7508293273
  0
LWPOLYLINE
  5
BEC
330
76
100
AcDbEntity
  8
0
100
AcDbPolyline
 90
        5
 70
     1
 43
0.0
 10
38086.64105247327
 20
45615.7508293273
 10
38186.64105247327
 20
45615.7508293273
 10
38186.64105247327
 20
45595.7508293273
 10
38086.64105247327
 20
45595.7508293273
 10
38086.64105247327
 20
45615.7508293273
  0
LWPOLYLINE
  5
BF3
330
76
100
AcDbEntity
  8
0
100
AcDbPolyline
 90
        5
 70
     1
 43
0.0
 10
38046.54505247327
 20
46115.75082932731
 10
38206.54505247327
 20
46115.75082932731
 10
38206.54505247327
 20
46135.7508293273
 10
38046.54505247327
 20
46135.7508293273
 10
38046.54505247327
 20
46115.75082932731
  0
LWPOLYLINE
  5
BFA
330
76
100
AcDbEntity
  8
0
100
AcDbPolyline
 90
        5
 70
     1
 43
0.0
 10
38046.54505247327
 20
46035.75082932731
 10
38206.54505247327
 20
46035.75082932731
 10
38206.54505247327
 20
46055.7508293273
 10
38046.54505247327
 20
46055.7508293273
 10
38046.54505247327
 20
46035.75082932731
  0
LWPOLYLINE
  5
C01
330
76
100
AcDbEntity
  8
0
100
AcDbPolyline
 90
        5
 70
     1
 43
0.0
 10
38046.54505247327
 20
45955.75082932731
 10
38206.54505247327
 20
45955.75082932731
 10
38206.54505247327
 20
45975.7508293273
 10
38046.54505247327
 20
45975.7508293273
 10
38046.54505247327
 20
45955.75082932731
  0
LWPOLYLINE
  5
C08
330
76
100
AcDbEntity
  8
0
100
AcDbPolyline
 90
        5
 70
     1
 43
0.0
 10
38074.78505247327
 20
45875.75082932731
 10
38234.78505247327
 20
45875.75082932731
 10
38234.78505247327
 20
45895.7508293273
 10
38074.78505247327
 20
45895.7508293273
 10
38074.78505247327
 20
45875.75082932731
  0
LWPOLYLINE
  5
C0F
330
76
100
AcDbEntity
  8
0
100
AcDbPolyline
 90
        5
 70
     1
 43
0.0
 10
38086.64105247327
 20
45795.75082932731
 10
38246.64105247327
 20
45795.75082932731
 10
38246.64105247327
 20
45815.7508293273
 10
38086.64105247327
 20
45815.7508293273
 10
38086.64105247327
 20
45795.75082932731
  0
LWPOLYLINE
  5
C16
330
76
100
AcDbEntity
  8
0
100
AcDbPolyline
 90
        5
 70
     1
 43
0.0
 10
38086.64105247327
 20
45715.75082932731
 10
38246.64105247327
 20
45715.75082932731
 10
38246.64105247327
 20
45735.7508293273
 10
38086.64105247327
 20
45735.7508293273
 10
38086.64105247327
 20
45715.75082932731
  0
LWPOLYLINE
  5
C1D
330
76
100
AcDbEntity
  8
0
100
AcDbPolyline
 90
        5
 70
     1
 43
0.0
 10
38086.64105247327
 20
45635.75082932731
 10
38246.64105247327
 20
45635.75082932731
 10
38246.64105247327
 20
45655.7508293273
 10
38086.64105247327
 20
45655.7508293273
 10
38086.64105247327
 20
45635.75082932731
  0
LWPOLYLINE
  5
C24
330
76
100
AcDbEntity
  8
0
100
AcDbPolyline
 90
        5
 70
     1
 43
0.0
 10
38086.64105247327
 20
45555.75082932731
 10
38246.64105247327
 20
45555.75082932731
 10
38246.64105247327
 20
45575.7508293273
 10
38086.64105247327
 20
45575.7508293273
 10
38086.64105247327
 20
45555.75082932731
  0
CIRCLE
  5
237C
330
76
100
AcDbEntity
  8
0
100
AcDbCircle
 10
34509.93405247327
 20
55696.05696746423
 30
0.0
 40
50.0
  0
CIRCLE
  5
237D
330
76
100
AcDbEntity
  8
0
100
AcDbCircle
 10
34328.31105247327
 20
55612.31396746424
 30
0.0
 40
50.0
  0
CIRCLE
  5
237E
330
76
100
AcDbEntity
  8
0
100
AcDbCircle
 10
34146.68505247327
 20
55528.57196746423
 30
0.0
 40
50.0
  0
CIRCLE
  5
237F
330
76
100
AcDbEntity
  8
0
100
AcDbCircle
 10
33965.06005247327
 20
55444.83096746422
 30
0.0
 40
50.0
  0
CIRCLE
  5
2380
330
76
100
AcDbEntity
  8
0
100
AcDbCircle
 10
33549.65705247327
 20
54968.63696746423
 30
0.0
 40
50.0
  0
CIRCLE
  5
2381
330
76
100
AcDbEntity
  8
0
100
AcDbCircle
 10
33474.62005247327
 20
54783.24696746423
 30
0.0
 40
50.0
  0
CIRCLE
  5
2382
330
76
100
AcDbEntity
  8
0
100
AcDbCircle
 10
33399.58605247327
 20
54597.85696746423
 30
0.0
 40
50.0
  0
CIRCLE
  5
2383
330
76
100
AcDbEntity
  8
0
100
AcDbCircle
 10
34511.10805247327
 20
55470.69196746424
 30
0.0
 40
45.0
  0
CIRCLE
  5
2384
330
76
100
AcDbEntity
  8
0
100
AcDbCircle
 10
34347.64505247327
 20
55395.32396746423
 30
0.0
 40
45.0
  0
CIRCLE
  5
2385
330
76
100
AcDbEntity
  8
0
100
AcDbCircle
 10
34184.18405247327
 20
55319.95696746423
 30
0.0
 40
45.0
  0
CIRCLE
  5
2386
330
76
100
AcDbEntity
  8
0
100
AcDbCircle
 10
34020.72205247327
 20
55244.58796746422
 30
0.0
 40
45.0
  0
CIRCLE
  5
2387
330
76
100
AcDbEntity
  8
0
100
AcDbCircle
 10
33734.83205247327
 20
54879.34196746423
 30
0.0
 40
45.0
  0
CIRCLE
  5
2388
330
76
100
AcDbEntity
  8
0
100
AcDbCircle
 10
33667.30005247327
 20
54712.49196746423
 30
0.0
 40
45.0
  0
CIRCLE
  5
2389
330
76
100
AcDbEntity
  8
0
100
AcDbCircle
 10
33599.76805247327
 20
54545.64096746422
 30
0.0
 40
45.0
  0
CIRCLE
  5
238A
330
76
100
AcDbEntity
  8
0
100
AcDbCircle
 10
34625.79805247326
 20
55319.52896746423
 30
0.0
 40
35.0
  0
CIRCLE
  5
238B
330
76
100
AcDbEntity
  8
0
100
AcDbCircle
 10
34489.58105247327
 20
55256.72196746423
 30
0.0
 40
35.0
  0
CIRCLE
  5
238C
330
76
100
AcDbEntity
  8
0
100
AcDbCircle
 10
34353.36205247327
 20
55193.91696746423
 30
0.0
 40
35.0
  0
CIRCLE
  5
238D
330
76
100
AcDbEntity
  8
0
100
AcDbCircle
 10
34217.14605247327
 20
55131.11096746422
 30
0.0
 40
35.0
  0
CIRCLE
  5
238E
330
76
100
AcDbEntity
  8
0
100
AcDbCircle
 10
34080.92705247327
 20
55068.30296746423
 30
0.0
 40
35.0
  0
CIRCLE
  5
238F
330
76
100
AcDbEntity
  8
0
100
AcDbCircle
 10
33910.66805247326
 20
54819.89196746423
 30
0.0
 40
35.0
  0
CIRCLE
  5
2390
330
76
100
AcDbEntity
  8
0
100
AcDbCircle
 10
33854.39105247327
 20
54680.84796746422
 30
0.0
 40
35.0
  0
CIRCLE
  5
2391
330
76
100
AcDbEntity
  8
0
100
AcDbCircle
 10
33798.11405247327
 20
54541.80496746423
 30
0.0
 40
35.0
  0
CIRCLE
  5
2392
330
76
100
AcDbEntity
  8
0
100
AcDbCircle
 10
34621.97205247327
 20
55180.11796746423
 30
0.0
 40
30.0
  0
CIRCLE
  5
2393
330
76
100
AcDbEntity
  8
0
100
AcDbCircle
 10
34503.91705247327
 20
55125.68596746422
 30
0.0
 40
30.0
  0
CIRCLE
  5
2394
330
76
100
AcDbEntity
  8
0
100
AcDbCircle
 10
34385.86105247327
 20
55071.25396746423
 30
0.0
 40
30.0
  0
CIRCLE
  5
2395
330
76
100
AcDbEntity
  8
0
100
AcDbCircle
 10
34267.80505247327
 20
55016.82196746423
 30
0.0
 40
30.0
  0
CIRCLE
  5
2396
330
76
100
AcDbEntity
  8
0
100
AcDbCircle
 10
34149.75005247327
 20
54962.38896746423
 30
0.0
 40
30.0
  0
CIRCLE
  5
2397
330
76
100
AcDbEntity
  8
0
100
AcDbCircle
 10
34040.85005247327
 20
54808.35896746423
 30
0.0
 40
30.0
  0
CIRCLE
  5
2398
330
76
100
AcDbEntity
  8
0
100
AcDbCircle
 10
33992.07705247327
 20
54687.85496746424
 30
0.0
 40
30.0
  0
CIRCLE
  5
2399
330
76
100
AcDbEntity
  8
0
100
AcDbCircle
 10
33943.30405247326
 20
54567.35196746423
 30
0.0
 40
30.0
  0
CIRCLE
  5
239A
330
76
100
AcDbEntity
  8
0
100
AcDbCircle
 10
33894.52905247327
 20
54446.84696746423
 30
0.0
 40
30.0
  0
CIRCLE
  5
239B
330
76
100
AcDbEntity
  8
0
100
AcDbCircle
 10
34521.17305247326
 20
55018.01796746423
 30
0.0
 40
25.0
  0
CIRCLE
  5
239C
330
76
100
AcDbEntity
  8
0
100
AcDbCircle
 10
34421.28005247327
 20
54971.96096746423
 30
0.0
 40
25.0
  0
CIRCLE
  5
239D
330
76
100
AcDbEntity
  8
0
100
AcDbCircle
 10
34321.38705247327
 20
54925.90296746422
 30
0.0
 40
25.0
  0
CIRCLE
  5
239E
330
76
100
AcDbEntity
  8
0
100
AcDbCircle
 10
34221.49405247327
 20
54879.84496746423
 30
0.0
 40
25.0
  0
CIRCLE
  5
239F
330
76
100
AcDbEntity
  8
0
100
AcDbCircle
 10
34157.16205247327
 20
54815.85996746423
 30
0.0
 40
25.0
  0
CIRCLE
  5
23A0
330
76
100
AcDbEntity
  8
0
100
AcDbCircle
 10
34115.89105247327
 20
54713.89496746422
 30
0.0
 40
25.0
  0
CIRCLE
  5
23A1
330
76
100
AcDbEntity
  8
0
100
AcDbCircle
 10
34074.62105247327
 20
54611.92996746423
 30
0.0
 40
25.0
  0
CIRCLE
  5
23A2
330
76
100
AcDbEntity
  8
0
100
AcDbCircle
 10
34033.35105247327
 20
54509.96496746423
 30
0.0
 40
25.0
  0
CIRCLE
  5
23A3
330
76
100
AcDbEntity
  8
0
100
AcDbCircle
 10
34478.36505247327
 20
54904.68096746423
 30
0.0
 40
20.0
  0
CIRCLE
  5
23A4
330
76
100
AcDbEntity
  8
0
100
AcDbCircle
 10
34296.74205247327
 20
54820.93996746423
 30
0.0
 40
20.0
  0
CIRCLE
  5
23A5
330
76
100
AcDbEntity
  8
0
100
AcDbCircle
 10
34218.57005247327
 20
54741.02196746423
 30
0.0
 40
20.0
  0
CIRCLE
  5
23A6
330
76
100
AcDbEntity
  8
0
100
AcDbCircle
 10
34181.05205247327
 20
54648.32796746423
 30
0.0
 40
20.0
  0
CIRCLE
  5
23A7
330
76
100
AcDbEntity
  8
0
100
AcDbCircle
 10
34143.53305247327
 20
54555.63196746424
 30
0.0
 40
20.0
  0
CIRCLE
  5
23A8
330
76
100
AcDbEntity
  8
0
100
AcDbCircle
 10
34082.63805247327
 20
54888.02996746422
 30
0.0
 40
30.0
  0
CIRCLE
  5
23A9
330
76
100
AcDbEntity
  8
0
100
AcDbCircle
 10
33977.96405247327
 20
54947.89196746423
 30
0.0
 40
35.0
  0
CIRCLE
  5
23AA
330
76
100
AcDbEntity
  8
0
100
AcDbCircle
 10
33819.35805247327
 20
55027.92796746422
 30
0.0
 40
45.0
  0
CIRCLE
  5
23AB
330
76
100
AcDbEntity
  8
0
100
AcDbCircle
 10
33796.49405247327
 20
55333.90996746423
 30
0.0
 40
50.0
  0
CIRCLE
  5
23AC
330
76
100
AcDbEntity
  8
0
100
AcDbCircle
 10
33928.37205247327
 20
55147.38296746423
 30
0.0
 40
45.0
  0
CIRCLE
  5
23AD
330
76
100
AcDbEntity
  8
0
100
AcDbCircle
 10
33651.80105247327
 20
55176.81096746422
 30
0.0
 40
50.0
  0
CIRCLE
  5
23AE
330
76
100
AcDbEntity
  8
0
100
AcDbCircle
 10
34348.32105247327
 20
54753.72996746423
 30
0.0
 40
20.0
  0
CIRCLE
  5
23AF
330
76
100
AcDbEntity
  8
0
100
AcDbCircle
 10
34305.16505247327
 20
54690.45296746423
 30
0.0
 40
20.0
  0
CIRCLE
  5
23B0
330
76
100
AcDbEntity
  8
0
100
AcDbCircle
 10
34573.23005247327
 20
55117.35096746423
 30
0.0
 40
20.0
  0
CIRCLE
  5
23B1
330
76
100
AcDbEntity
  8
0
100
AcDbCircle
 10
34460.08905247327
 20
55046.55396746423
 30
0.0
 40
20.0
  0
CIRCLE
  5
23B2
330
76
100
AcDbEntity
  8
0
100
AcDbCircle
 10
34350.21805247327
 20
54991.40596746422
 30
0.0
 40
20.0
  0
CIRCLE
  5
23B3
330
76
100
AcDbEntity
  8
0
100
AcDbCircle
 10
34240.02105247327
 20
54944.71196746423
 30
0.0
 40
20.0
  0
CIRCLE
  5
23B4
330
76
100
AcDbEntity
  8
0
100
AcDbCircle
 10
34157.99605247327
 20
54886.81796746423
 30
0.0
 40
20.0
  0
CIRCLE
  5
23B5
330
76
100
AcDbEntity
  8
0
100
AcDbCircle
 10
34062.66005247327
 20
54733.02696746423
 30
0.0
 40
20.0
  0
CIRCLE
  5
23B6
330
76
100
AcDbEntity
  8
0
100
AcDbCircle
 10
34012.59205247327
 20
54598.34096746422
 30
0.0
 40
20.0
  0
CIRCLE
  5
23B7
330
76
100
AcDbEntity
  8
0
100
AcDbCircle
 10
33969.93205247327
 20
54483.75896746424
 30
0.0
 40
20.0
  0
CIRCLE
  5
23B8
330
76
100
AcDbEntity
  8
0
100
AcDbCircle
 10
34588.04005247327
 20
55046.54196746423
 30
0.0
 40
20.0
  0
CIRCLE
  5
23B9
330
76
100
AcDbEntity
  8
0
100
AcDbCircle
 10
34523.74405247327
 20
54946.87396746424
 30
0.0
 40
20.0
  0
CIRCLE
  5
23BA
330
76
100
AcDbEntity
  8
0
100
AcDbCircle
 10
34397.01705247327
 20
54898.48896746423
 30
0.0
 40
20.0
  0
CIRCLE
  5
23BB
330
76
100
AcDbEntity
  8
0
100
AcDbCircle
 10
34361.85005247327
 20
54836.62696746423
 30
0.0
 40
20.0
  0
CIRCLE
  5
23BC
330
76
100
AcDbEntity
  8
0
100
AcDbCircle
 10
34285.36605247327
 20
54750.62596746423
 30
0.0
 40
20.0
  0
CIRCLE
  5
23BD
330
76
100
AcDbEntity
  8
0
100
AcDbCircle
 10
34236.84505247327
 20
54672.90696746423
 30
0.0
 40
20.0
  0
CIRCLE
  5
23BE
330
76
100
AcDbEntity
  8
0
100
AcDbCircle
 10
34212.06405247327
 20
54583.98896746423
 30
0.0
 40
20.0
  0
CIRCLE
  5
23BF
330
76
100
AcDbEntity
  8
0
100
AcDbCircle
 10
34445.18105247327
 20
54833.48196746423
 30
0.0
 40
20.0
  0
CIRCLE
  5
23C0
330
76
100
AcDbEntity
  8
0
100
AcDbCircle
 10
34401.16305247327
 20
54789.24896746423
 30
0.0
 40
20.0
  0
CIRCLE
  5
23C1
330
76
100
AcDbEntity
  8
0
100
AcDbCircle
 10
34493.49905247327
 20
54853.07396746423
 30
0.0
 40
20.0
  0
CIRCLE
  5
23C2
330
76
100
AcDbEntity
  8
0
100
AcDbCircle
 10
33751.62105247327
 20
54440.57996746423
 30
0.0
 40
35.0
  0
CIRCLE
  5
23C3
330
76
100
AcDbEntity
  8
0
100
AcDbCircle
 10
34280.98105247327
 20
54623.27296746423
 30
0.0
 40
20.0
  0
CIRCLE
  5
23C4
330
76
100
AcDbEntity
  8
0
100
AcDbCircle
 10
33479.33105247327
 20
54477.39596746422
 30
0.0
 40
45.0
  0
CIRCLE
  5
23C5
330
76
100
AcDbEntity
  8
0
100
AcDbCircle
 10
34584.56505247327
 20
55585.40996746423
 30
0.0
 40
45.0
  0
CIRCLE
  5
23C6
330
76
100
AcDbEntity
  8
0
100
AcDbCircle
 10
35716.52405247327
 20
56690.60796746423
 30
0.0
 40
90.0
  0
CIRCLE
  5
23C7
330
76
100
AcDbEntity
  8
0
100
AcDbCircle
 10
36016.52405247327
 20
56690.60796746423
 30
0.0
 40
90.0
  0
CIRCLE
  5
23C8
330
76
100
AcDbEntity
  8
0
100
AcDbCircle
 10
36016.52405247327
 20
56090.60796746422
 30
0.0
 40
90.0
  0
CIRCLE
  5
23C9
330
76
100
AcDbEntity
  8
0
100
AcDbCircle
 10
36316.52405247327
 20
56690.60796746423
 30
0.0
 40
90.0
  0
CIRCLE
  5
23CA
330
76
100
AcDbEntity
  8
0
100
AcDbCircle
 10
36316.52405247327
 20
56090.60796746422
 30
0.0
 40
90.0
  0
CIRCLE
  5
23CB
330
76
100
AcDbEntity
  8
0
100
AcDbCircle
 10
36616.52405247326
 20
56690.60796746423
 30
0.0
 40
90.0
  0
CIRCLE
  5
23CC
330
76
100
AcDbEntity
  8
0
100
AcDbCircle
 10
36616.52405247326
 20
56090.60796746422
 30
0.0
 40
90.0
  0
CIRCLE
  5
23CD
330
76
100
AcDbEntity
  8
0
100
AcDbCircle
 10
36916.52405247327
 20
56690.60796746423
 30
0.0
 40
90.0
  0
CIRCLE
  5
23CE
330
76
100
AcDbEntity
  8
0
100
AcDbCircle
 10
36916.52405247327
 20
56090.60796746422
 30
0.0
 40
90.0
  0
CIRCLE
  5
23CF
330
76
100
AcDbEntity
  8
0
100
AcDbCircle
 10
37216.52405247326
 20
56690.60796746423
 30
0.0
 40
90.0
  0
CIRCLE
  5
23D0
330
76
100
AcDbEntity
  8
0
100
AcDbCircle
 10
37216.52405247326
 20
56090.60796746422
 30
0.0
 40
90.0
  0
CIRCLE
  5
23D1
330
76
100
AcDbEntity
  8
0
100
AcDbCircle
 10
37516.52405247327
 20
56690.60796746423
 30
0.0
 40
90.0
  0
CIRCLE
  5
23D2
330
76
100
AcDbEntity
  8
0
100
AcDbCircle
 10
37516.52405247327
 20
56090.60796746422
 30
0.0
 40
90.0
  0
CIRCLE
  5
23D3
330
76
100
AcDbEntity
  8
0
100
AcDbCircle
 10
37816.52405247327
 20
56690.60796746423
 30
0.0
 40
90.0
  0
CIRCLE
  5
23D4
330
76
100
AcDbEntity
  8
0
100
AcDbCircle
 10
37816.52405247327
 20
56090.60796746422
 30
0.0
 40
90.0
  0
CIRCLE
  5
23D5
330
76
100
AcDbEntity
  8
0
100
AcDbCircle
 10
38116.52405247327
 20
56690.60796746423
 30
0.0
 40
90.0
  0
CIRCLE
  5
23D6
330
76
100
AcDbEntity
  8
0
100
AcDbCircle
 10
38116.52405247327
 20
56090.60796746422
 30
0.0
 40
90.0
  0
CIRCLE
  5
23D7
330
76
100
AcDbEntity
  8
0
100
AcDbCircle
 10
38416.52405247327
 20
56690.60796746423
 30
0.0
 40
90.0
  0
CIRCLE
  5
23D8
330
76
100
AcDbEntity
  8
0
100
AcDbCircle
 10
38416.52405247327
 20
56090.60796746422
 30
0.0
 40
90.0
  0
CIRCLE
  5
23D9
330
76
100
AcDbEntity
  8
0
100
AcDbCircle
 10
38716.52405247327
 20
56690.60796746423
 30
0.0
 40
90.0
  0
CIRCLE
  5
23DA
330
76
100
AcDbEntity
  8
0
100
AcDbCircle
 10
38716.52405247327
 20
56090.60796746422
 30
0.0
 40
90.0
  0
CIRCLE
  5
23DB
330
76
100
AcDbEntity
  8
0
100
AcDbCircle
 10
39016.52405247327
 20
56690.60796746423
 30
0.0
 40
90.0
  0
CIRCLE
  5
23DC
330
76
100
AcDbEntity
  8
0
100
AcDbCircle
 10
39016.52405247327
 20
56090.60796746422
 30
0.0
 40
90.0
  0
CIRCLE
  5
23DD
330
76
100
AcDbEntity
  8
0
100
AcDbCircle
 10
39316.52405247326
 20
56690.60796746423
 30
0.0
 40
90.0
  0
CIRCLE
  5
23DE
330
76
100
AcDbEntity
  8
0
100
AcDbCircle
 10
39316.52405247326
 20
56090.60796746422
 30
0.0
 40
90.0
  0
CIRCLE
  5
23DF
330
76
100
AcDbEntity
  8
0
100
AcDbCircle
 10
39616.52405247327
 20
56690.60796746423
 30
0.0
 40
90.0
  0
CIRCLE
  5
23E0
330
76
100
AcDbEntity
  8
0
100
AcDbCircle
 10
39616.52405247327
 20
56090.60796746422
 30
0.0
 40
90.0
  0
CIRCLE
  5
23E1
330
76
100
AcDbEntity
  8
0
100
AcDbCircle
 10
39916.52405247327
 20
56690.60796746423
 30
0.0
 40
90.0
  0
CIRCLE
  5
23E2
330
76
100
AcDbEntity
  8
0
100
AcDbCircle
 10
39916.52405247327
 20
56090.60796746422
 30
0.0
 40
90.0
  0
CIRCLE
  5
23E3
330
76
100
AcDbEntity
  8
0
100
AcDbCircle
 10
40216.52405247326
 20
56690.60796746423
 30
0.0
 40
90.0
  0
TEXT
  5
2603
330
76
100
AcDbEntity
  8
0
100
AcDbText
 10
42831.38572962433
 20
54338.75667297019
 30
0.0
 40
400.0
  1
Mathur et al, 2022: Pico-injector
 50
270.0
100
AcDbText
  0
LINE
  5
2637
330
76
100
AcDbEntity
  8
0
100
AcDbLine
 10
38109.91405247327
 20
44923.0418293273
 30
0.0
 11
38111.45905247327
 21
44922.5738293273
 31
0.0
  0
LINE
  5
2638
330
76
100
AcDbEntity
  8
0
100
AcDbLine
 10
38111.45905247327
 20
44922.5738293273
 30
0.0
 11
38144.18205247327
 21
44919.3508293273
 31
0.0
  0
LINE
  5
2639
330
76
100
AcDbEntity
  8
0
100
AcDbLine
 10
38144.18205247327
 20
44919.3508293273
 30
0.0
 11
38149.39605247327
 21
44919.4328293273
 31
0.0
  0
LINE
  5
263A
330
76
100
AcDbEntity
  8
0
100
AcDbLine
 10
38149.39605247327
 20
44919.4328293273
 30
0.0
 11
38159.08505247327
 21
44918.4788293273
 31
0.0
  0
LINE
  5
263B
330
76
100
AcDbEntity
  8
0
100
AcDbLine
 10
38159.08505247327
 20
44918.4788293273
 30
0.0
 11
38170.42205247327
 21
44919.03682932729
 31
0.0
  0
LINE
  5
263C
330
76
100
AcDbEntity
  8
0
100
AcDbLine
 10
38170.42205247327
 20
44919.03682932729
 30
0.0
 11
38711.49105247327
 21
44918.6978293273
 31
0.0
  0
LINE
  5
263D
330
76
100
AcDbEntity
  8
0
100
AcDbLine
 10
38711.49105247327
 20
44918.6978293273
 30
0.0
 11
38764.16505247327
 21
44913.5088293273
 31
0.0
  0
LINE
  5
263E
330
76
100
AcDbEntity
  8
0
100
AcDbLine
 10
38764.16505247327
 20
44913.5088293273
 30
0.0
 11
38814.81605247327
 21
44898.14482932731
 31
0.0
  0
LINE
  5
263F
330
76
100
AcDbEntity
  8
0
100
AcDbLine
 10
38814.81605247327
 20
44898.14482932731
 30
0.0
 11
38861.49505247327
 21
44873.19382932731
 31
0.0
  0
LINE
  5
2640
330
76
100
AcDbEntity
  8
0
100
AcDbLine
 10
38861.49505247327
 20
44873.19382932731
 30
0.0
 11
38902.41005247327
 21
44839.6158293273
 31
0.0
  0
LINE
  5
2641
330
76
100
AcDbEntity
  8
0
100
AcDbLine
 10
38902.41005247327
 20
44839.6158293273
 30
0.0
 11
38935.98705247327
 21
44798.7008293273
 31
0.0
  0
LINE
  5
2642
330
76
100
AcDbEntity
  8
0
100
AcDbLine
 10
38935.98705247327
 20
44798.7008293273
 30
0.0
 11
38960.93805247327
 21
44752.02182932729
 31
0.0
  0
LINE
  5
2643
330
76
100
AcDbEntity
  8
0
100
AcDbLine
 10
38960.93805247327
 20
44752.02182932729
 30
0.0
 11
38976.30305247327
 21
44701.37182932729
 31
0.0
  0
LINE
  5
2644
330
76
100
AcDbEntity
  8
0
100
AcDbLine
 10
38976.30305247327
 20
44701.37182932729
 30
0.0
 11
38981.49105247327
 21
44648.6978293273
 31
0.0
  0
LINE
  5
2645
330
76
100
AcDbEntity
  8
0
100
AcDbLine
 10
38981.49105247327
 20
44648.6978293273
 30
0.0
 11
38976.30305247327
 21
44596.02182932729
 31
0.0
  0
LINE
  5
2646
330
76
100
AcDbEntity
  8
0
100
AcDbLine
 10
38976.30305247327
 20
44596.02182932729
 30
0.0
 11
38960.93805247327
 21
44545.3728293273
 31
0.0
  0
LINE
  5
2647
330
76
100
AcDbEntity
  8
0
100
AcDbLine
 10
38960.93805247327
 20
44545.3728293273
 30
0.0
 11
38935.98705247327
 21
44498.69282932731
 31
0.0
  0
LINE
  5
2648
330
76
100
AcDbEntity
  8
0
100
AcDbLine
 10
38935.98705247327
 20
44498.69282932731
 30
0.0
 11
38902.41005247327
 21
44457.7778293273
 31
0.0
  0
LINE
  5
2649
330
76
100
AcDbEntity
  8
0
100
AcDbLine
 10
38902.41005247327
 20
44457.7778293273
 30
0.0
 11
38861.49505247327
 21
44424.1998293273
 31
0.0
  0
LINE
  5
264A
330
76
100
AcDbEntity
  8
0
100
AcDbLine
 10
38861.49505247327
 20
44424.1998293273
 30
0.0
 11
38814.81605247327
 21
44399.2488293273
 31
0.0
  0
LINE
  5
264B
330
76
100
AcDbEntity
  8
0
100
AcDbLine
 10
38814.81605247327
 20
44399.2488293273
 30
0.0
 11
38764.16505247327
 21
44383.8848293273
 31
0.0
  0
LINE
  5
264C
330
76
100
AcDbEntity
  8
0
100
AcDbLine
 10
38764.16505247327
 20
44383.8848293273
 30
0.0
 11
38711.49105247327
 21
44378.69782932731
 31
0.0
  0
LINE
  5
264D
330
76
100
AcDbEntity
  8
0
100
AcDbLine
 10
38711.49105247327
 20
44378.69782932731
 30
0.0
 11
38235.09305247327
 21
44378.69782932731
 31
0.0
  0
LINE
  5
264E
330
76
100
AcDbEntity
  8
0
100
AcDbLine
 10
38235.09305247327
 20
44378.69782932731
 30
0.0
 11
38208.75605247327
 21
44376.1028293273
 31
0.0
  0
LINE
  5
264F
330
76
100
AcDbEntity
  8
0
100
AcDbLine
 10
38208.75605247327
 20
44376.1028293273
 30
0.0
 11
38183.43105247327
 21
44368.4208293273
 31
0.0
  0
LINE
  5
2650
330
76
100
AcDbEntity
  8
0
100
AcDbLine
 10
38183.43105247327
 20
44368.4208293273
 30
0.0
 11
38160.09105247327
 21
44355.9458293273
 31
0.0
  0
LINE
  5
2651
330
76
100
AcDbEntity
  8
0
100
AcDbLine
 10
38160.09105247327
 20
44355.9458293273
 30
0.0
 11
38139.63405247326
 21
44339.1558293273
 31
0.0
  0
LINE
  5
2652
330
76
100
AcDbEntity
  8
0
100
AcDbLine
 10
38139.63405247326
 20
44339.1558293273
 30
0.0
 11
38122.84505247327
 21
44318.6988293273
 31
0.0
  0
LINE
  5
2653
330
76
100
AcDbEntity
  8
0
100
AcDbLine
 10
38122.84505247327
 20
44318.6988293273
 30
0.0
 11
38110.36905247327
 21
44295.3588293273
 31
0.0
  0
LINE
  5
2654
330
76
100
AcDbEntity
  8
0
100
AcDbLine
 10
38110.36905247327
 20
44295.3588293273
 30
0.0
 11
38102.68805247326
 21
44270.03482932731
 31
0.0
  0
LINE
  5
2655
330
76
100
AcDbEntity
  8
0
100
AcDbLine
 10
38102.68805247326
 20
44270.03482932731
 30
0.0
 11
38100.09305247327
 21
44243.6978293273
 31
0.0
  0
LINE
  5
2656
330
76
100
AcDbEntity
  8
0
100
AcDbLine
 10
38100.09305247327
 20
44243.6978293273
 30
0.0
 11
38102.68805247326
 21
44217.36082932731
 31
0.0
  0
LINE
  5
2657
330
76
100
AcDbEntity
  8
0
100
AcDbLine
 10
38102.68805247326
 20
44217.36082932731
 30
0.0
 11
38110.36905247327
 21
44192.0348293273
 31
0.0
  0
LINE
  5
2658
330
76
100
AcDbEntity
  8
0
100
AcDbLine
 10
38110.36905247327
 20
44192.0348293273
 30
0.0
 11
38122.84505247327
 21
44168.69482932731
 31
0.0
  0
LINE
  5
2659
330
76
100
AcDbEntity
  8
0
100
AcDbLine
 10
38122.84505247327
 20
44168.69482932731
 30
0.0
 11
38139.63405247326
 21
44148.23782932731
 31
0.0
  0
LINE
  5
265A
330
76
100
AcDbEntity
  8
0
100
AcDbLine
 10
38139.63405247326
 20
44148.23782932731
 30
0.0
 11
38160.09105247327
 21
44131.44782932731
 31
0.0
  0
LINE
  5
265B
330
76
100
AcDbEntity
  8
0
100
AcDbLine
 10
38160.09105247327
 20
44131.44782932731
 30
0.0
 11
38183.43105247327
 21
44118.97282932731
 31
0.0
  0
LINE
  5
265C
330
76
100
AcDbEntity
  8
0
100
AcDbLine
 10
38183.43105247327
 20
44118.97282932731
 30
0.0
 11
38208.75605247327
 21
44111.2908293273
 31
0.0
  0
LINE
  5
265D
330
76
100
AcDbEntity
  8
0
100
AcDbLine
 10
38208.75605247327
 20
44111.2908293273
 30
0.0
 11
38235.09305247327
 21
44108.69782932731
 31
0.0
  0
LINE
  5
265E
330
76
100
AcDbEntity
  8
0
100
AcDbLine
 10
38235.09305247327
 20
44108.69782932731
 30
0.0
 11
38711.49105247327
 21
44108.69782932731
 31
0.0
  0
LINE
  5
265F
330
76
100
AcDbEntity
  8
0
100
AcDbLine
 10
38711.49105247327
 20
44108.69782932731
 30
0.0
 11
38764.16505247327
 21
44103.50882932729
 31
0.0
  0
LINE
  5
2660
330
76
100
AcDbEntity
  8
0
100
AcDbLine
 10
38764.16505247327
 20
44103.50882932729
 30
0.0
 11
38814.81605247327
 21
44088.1448293273
 31
0.0
  0
LINE
  5
2661
330
76
100
AcDbEntity
  8
0
100
AcDbLine
 10
38814.81605247327
 20
44088.1448293273
 30
0.0
 11
38861.49505247327
 21
44063.1938293273
 31
0.0
  0
LINE
  5
2662
330
76
100
AcDbEntity
  8
0
100
AcDbLine
 10
38861.49505247327
 20
44063.1938293273
 30
0.0
 11
38902.41005247327
 21
44029.6158293273
 31
0.0
  0
LINE
  5
2663
330
76
100
AcDbEntity
  8
0
100
AcDbLine
 10
38902.41005247327
 20
44029.6158293273
 30
0.0
 11
38935.98705247327
 21
43988.7008293273
 31
0.0
  0
LINE
  5
2664
330
76
100
AcDbEntity
  8
0
100
AcDbLine
 10
38935.98705247327
 20
43988.7008293273
 30
0.0
 11
38960.93805247327
 21
43942.0218293273
 31
0.0
  0
LINE
  5
2665
330
76
100
AcDbEntity
  8
0
100
AcDbLine
 10
38960.93805247327
 20
43942.0218293273
 30
0.0
 11
38976.30305247327
 21
43891.3718293273
 31
0.0
  0
LINE
  5
2666
330
76
100
AcDbEntity
  8
0
100
AcDbLine
 10
38976.30305247327
 20
43891.3718293273
 30
0.0
 11
38981.49105247327
 21
43838.6978293273
 31
0.0
  0
LINE
  5
2667
330
76
100
AcDbEntity
  8
0
100
AcDbLine
 10
38981.49105247327
 20
43838.6978293273
 30
0.0
 11
38976.30305247327
 21
43786.0218293273
 31
0.0
  0
LINE
  5
2668
330
76
100
AcDbEntity
  8
0
100
AcDbLine
 10
38976.30305247327
 20
43786.0218293273
 30
0.0
 11
38960.93805247327
 21
43735.37282932731
 31
0.0
  0
LINE
  5
2669
330
76
100
AcDbEntity
  8
0
100
AcDbLine
 10
38960.93805247327
 20
43735.37282932731
 30
0.0
 11
38935.98705247327
 21
43688.6928293273
 31
0.0
  0
LINE
  5
266A
330
76
100
AcDbEntity
  8
0
100
AcDbLine
 10
38935.98705247327
 20
43688.6928293273
 30
0.0
 11
38902.41005247327
 21
43647.77782932731
 31
0.0
  0
LINE
  5
266B
330
76
100
AcDbEntity
  8
0
100
AcDbLine
 10
38902.41005247327
 20
43647.77782932731
 30
0.0
 11
38861.49505247327
 21
43614.1998293273
 31
0.0
  0
LINE
  5
266C
330
76
100
AcDbEntity
  8
0
100
AcDbLine
 10
38861.49505247327
 20
43614.1998293273
 30
0.0
 11
38814.81605247327
 21
43589.2488293273
 31
0.0
  0
LINE
  5
266D
330
76
100
AcDbEntity
  8
0
100
AcDbLine
 10
38814.81605247327
 20
43589.2488293273
 30
0.0
 11
38764.16505247327
 21
43573.88482932731
 31
0.0
  0
LINE
  5
266E
330
76
100
AcDbEntity
  8
0
100
AcDbLine
 10
38764.16505247327
 20
43573.88482932731
 30
0.0
 11
38711.49105247327
 21
43568.6978293273
 31
0.0
  0
LINE
  5
266F
330
76
100
AcDbEntity
  8
0
100
AcDbLine
 10
38711.49105247327
 20
43568.6978293273
 30
0.0
 11
38235.09305247327
 21
43568.6978293273
 31
0.0
  0
LINE
  5
2670
330
76
100
AcDbEntity
  8
0
100
AcDbLine
 10
38235.09305247327
 20
43568.6978293273
 30
0.0
 11
38208.75605247327
 21
43566.1028293273
 31
0.0
  0
LINE
  5
2671
330
76
100
AcDbEntity
  8
0
100
AcDbLine
 10
38208.75605247327
 20
43566.1028293273
 30
0.0
 11
38183.43105247327
 21
43558.4208293273
 31
0.0
  0
LINE
  5
2672
330
76
100
AcDbEntity
  8
0
100
AcDbLine
 10
38183.43105247327
 20
43558.4208293273
 30
0.0
 11
38160.09105247327
 21
43545.94582932731
 31
0.0
  0
LINE
  5
2673
330
76
100
AcDbEntity
  8
0
100
AcDbLine
 10
38160.09105247327
 20
43545.94582932731
 30
0.0
 11
38139.63405247326
 21
43529.1558293273
 31
0.0
  0
LINE
  5
2674
330
76
100
AcDbEntity
  8
0
100
AcDbLine
 10
38139.63405247326
 20
43529.1558293273
 30
0.0
 11
38122.84505247327
 21
43508.6988293273
 31
0.0
  0
LINE
  5
2675
330
76
100
AcDbEntity
  8
0
100
AcDbLine
 10
38122.84505247327
 20
43508.6988293273
 30
0.0
 11
38110.36905247327
 21
43485.3588293273
 31
0.0
  0
LINE
  5
2676
330
76
100
AcDbEntity
  8
0
100
AcDbLine
 10
38110.36905247327
 20
43485.3588293273
 30
0.0
 11
38102.68805247326
 21
43460.0348293273
 31
0.0
  0
LINE
  5
2677
330
76
100
AcDbEntity
  8
0
100
AcDbLine
 10
38102.68805247326
 20
43460.0348293273
 30
0.0
 11
38106.52805247327
 21
43057.7858293273
 31
0.0
  0
LINE
  5
2678
330
76
100
AcDbEntity
  8
0
100
AcDbLine
 10
38106.52805247327
 20
43057.7858293273
 30
0.0
 11
38698.18205247327
 21
41201.62282932731
 31
0.0
  0
LINE
  5
2679
330
76
100
AcDbEntity
  8
0
100
AcDbLine
 10
38698.18205247327
 20
41201.62282932731
 30
0.0
 11
38419.16705247327
 21
41124.7748293273
 31
0.0
  0
LINE
  5
267A
330
76
100
AcDbEntity
  8
0
100
AcDbLine
 10
38419.16705247327
 20
41124.7748293273
 30
0.0
 11
38091.79405247327
 21
41087.3318293273
 31
0.0
  0
LINE
  5
267B
330
76
100
AcDbEntity
  8
0
100
AcDbLine
 10
38091.79405247327
 20
41087.3318293273
 30
0.0
 11
38116.68505247327
 21
40465.74882932731
 31
0.0
  0
LINE
  5
267C
330
76
100
AcDbEntity
  8
0
100
AcDbLine
 10
38116.68505247327
 20
40465.74882932731
 30
0.0
 11
38186.29405247327
 21
40454.86082932731
 31
0.0
  0
LINE
  5
267D
330
76
100
AcDbEntity
  8
0
100
AcDbLine
 10
38186.29405247327
 20
40454.86082932731
 30
0.0
 11
38271.57805247327
 21
40424.9438293273
 31
0.0
  0
LINE
  5
267E
330
76
100
AcDbEntity
  8
0
100
AcDbLine
 10
38271.57805247327
 20
40424.9438293273
 30
0.0
 11
38349.38505247327
 21
40378.9638293273
 31
0.0
  0
LINE
  5
267F
330
76
100
AcDbEntity
  8
0
100
AcDbLine
 10
38349.38505247327
 20
40378.9638293273
 30
0.0
 11
38416.72705247327
 21
40318.6878293273
 31
0.0
  0
LINE
  5
2680
330
76
100
AcDbEntity
  8
0
100
AcDbLine
 10
38416.72705247327
 20
40318.6878293273
 30
0.0
 11
38471.01505247327
 21
40246.4318293273
 31
0.0
  0
LINE
  5
2681
330
76
100
AcDbEntity
  8
0
100
AcDbLine
 10
38471.01505247327
 20
40246.4318293273
 30
0.0
 11
38510.16505247327
 21
40164.9738293273
 31
0.0
  0
LINE
  5
2682
330
76
100
AcDbEntity
  8
0
100
AcDbLine
 10
38510.16505247327
 20
40164.9738293273
 30
0.0
 11
38532.66905247327
 21
40077.4418293273
 31
0.0
  0
LINE
  5
2683
330
76
100
AcDbEntity
  8
0
100
AcDbLine
 10
38532.66905247327
 20
40077.4418293273
 30
0.0
 11
38537.66605247327
 21
39987.20282932731
 31
0.0
  0
LINE
  5
2684
330
76
100
AcDbEntity
  8
0
100
AcDbLine
 10
38537.66605247327
 20
39987.20282932731
 30
0.0
 11
38524.96105247327
 21
39897.7218293273
 31
0.0
  0
LINE
  5
2685
330
76
100
AcDbEntity
  8
0
100
AcDbLine
 10
38524.96105247327
 20
39897.7218293273
 30
0.0
 11
38495.04405247327
 21
39812.4398293273
 31
0.0
  0
LINE
  5
2686
330
76
100
AcDbEntity
  8
0
100
AcDbLine
 10
38495.04405247327
 20
39812.4398293273
 30
0.0
 11
38449.06405247327
 21
39734.63182932731
 31
0.0
  0
LINE
  5
2687
330
76
100
AcDbEntity
  8
0
100
AcDbLine
 10
38449.06405247327
 20
39734.63182932731
 30
0.0
 11
38388.78805247327
 21
39667.29082932731
 31
0.0
  0
LINE
  5
2688
330
76
100
AcDbEntity
  8
0
100
AcDbLine
 10
38388.78805247327
 20
39667.29082932731
 30
0.0
 11
38316.53205247327
 21
39613.0018293273
 31
0.0
  0
LINE
  5
2689
330
76
100
AcDbEntity
  8
0
100
AcDbLine
 10
38316.53205247327
 20
39613.0018293273
 30
0.0
 11
38235.07305247327
 21
39573.8528293273
 31
0.0
  0
LINE
  5
268A
330
76
100
AcDbEntity
  8
0
100
AcDbLine
 10
38235.07305247327
 20
39573.8528293273
 30
0.0
 11
38147.54305247327
 21
39551.34782932731
 31
0.0
  0
LINE
  5
268B
330
76
100
AcDbEntity
  8
0
100
AcDbLine
 10
38147.54305247327
 20
39551.34782932731
 30
0.0
 11
38057.30305247327
 21
39546.3508293273
 31
0.0
  0
LINE
  5
268C
330
76
100
AcDbEntity
  8
0
100
AcDbLine
 10
38057.30305247327
 20
39546.3508293273
 30
0.0
 11
37967.82305247326
 21
39559.05582932731
 31
0.0
  0
LINE
  5
268D
330
76
100
AcDbEntity
  8
0
100
AcDbLine
 10
37967.82305247326
 20
39559.05582932731
 30
0.0
 11
37882.54005247327
 21
39588.97282932731
 31
0.0
  0
LINE
  5
268E
330
76
100
AcDbEntity
  8
0
100
AcDbLine
 10
37882.54005247327
 20
39588.97282932731
 30
0.0
 11
37804.73305247327
 21
39634.95282932731
 31
0.0
  0
LINE
  5
268F
330
76
100
AcDbEntity
  8
0
100
AcDbLine
 10
37804.73305247327
 20
39634.95282932731
 30
0.0
 11
37737.39105247327
 21
39695.2288293273
 31
0.0
  0
LINE
  5
2690
330
76
100
AcDbEntity
  8
0
100
AcDbLine
 10
37737.39105247327
 20
39695.2288293273
 30
0.0
 11
37683.10205247327
 21
39767.4848293273
 31
0.0
  0
LINE
  5
2691
330
76
100
AcDbEntity
  8
0
100
AcDbLine
 10
37683.10205247327
 20
39767.4848293273
 30
0.0
 11
37643.95305247327
 21
39848.94382932731
 31
0.0
  0
LINE
  5
2692
330
76
100
AcDbEntity
  8
0
100
AcDbLine
 10
37643.95305247327
 20
39848.94382932731
 30
0.0
 11
37621.44805247327
 21
39936.4748293273
 31
0.0
  0
LINE
  5
2693
330
76
100
AcDbEntity
  8
0
100
AcDbLine
 10
37621.44805247327
 20
39936.4748293273
 30
0.0
 11
37616.45205247327
 21
40026.7148293273
 31
0.0
  0
LINE
  5
2694
330
76
100
AcDbEntity
  8
0
100
AcDbLine
 10
37616.45205247327
 20
40026.7148293273
 30
0.0
 11
37629.15605247327
 21
40116.1948293273
 31
0.0
  0
LINE
  5
2695
330
76
100
AcDbEntity
  8
0
100
AcDbLine
 10
37629.15605247327
 20
40116.1948293273
 30
0.0
 11
37659.07405247327
 21
40201.47682932731
 31
0.0
  0
LINE
  5
2696
330
76
100
AcDbEntity
  8
0
100
AcDbLine
 10
37659.07405247327
 20
40201.47682932731
 30
0.0
 11
37705.05405247327
 21
40279.2848293273
 31
0.0
  0
LINE
  5
2697
330
76
100
AcDbEntity
  8
0
100
AcDbLine
 10
37705.05405247327
 20
40279.2848293273
 30
0.0
 11
37765.33005247327
 21
40346.6258293273
 31
0.0
  0
LINE
  5
2698
330
76
100
AcDbEntity
  8
0
100
AcDbLine
 10
37765.33005247327
 20
40346.6258293273
 30
0.0
 11
37837.58605247327
 21
40400.9148293273
 31
0.0
  0
LINE
  5
2699
330
76
100
AcDbEntity
  8
0
100
AcDbLine
 10
37837.58605247327
 20
40400.9148293273
 30
0.0
 11
37911.98705247327
 21
40437.4318293273
 31
0.0
  0
LINE
  5
269A
330
76
100
AcDbEntity
  8
0
100
AcDbLine
 10
37911.98705247327
 20
40437.4318293273
 30
0.0
 11
37911.98905247327
 21
40437.42382932729
 31
0.0
  0
LINE
  5
269B
330
76
100
AcDbEntity
  8
0
100
AcDbLine
 10
37911.98905247327
 20
40437.42382932729
 30
0.0
 11
37898.07405247327
 21
41023.3998293273
 31
0.0
  0
LINE
  5
269C
330
76
100
AcDbEntity
  8
0
100
AcDbLine
 10
37898.07405247327
 20
41023.3998293273
 30
0.0
 11
37895.07505247327
 21
41090.8338293273
 31
0.0
  0
LINE
  5
269D
330
76
100
AcDbEntity
  8
0
100
AcDbLine
 10
37895.07505247327
 20
41090.8338293273
 30
0.0
 11
37638.80605247327
 21
41124.7748293273
 31
0.0
  0
LINE
  5
269E
330
76
100
AcDbEntity
  8
0
100
AcDbLine
 10
37638.80605247327
 20
41124.7748293273
 30
0.0
 11
37296.10805247327
 21
41225.46182932731
 31
0.0
  0
LINE
  5
269F
330
76
100
AcDbEntity
  8
0
100
AcDbLine
 10
37296.10805247327
 20
41225.46182932731
 30
0.0
 11
37838.33705247327
 21
42698.6478293273
 31
0.0
  0
LINE
  5
26A0
330
76
100
AcDbEntity
  8
0
100
AcDbLine
 10
37838.33705247327
 20
42698.6478293273
 30
0.0
 11
37967.68705247327
 21
43050.0808293273
 31
0.0
  0
LINE
  5
26A1
330
76
100
AcDbEntity
  8
0
100
AcDbLine
 10
37967.68705247327
 20
43050.0808293273
 30
0.0
 11
37967.68705247327
 21
43407.35982932731
 31
0.0
  0
LINE
  5
26A2
330
76
100
AcDbEntity
  8
0
100
AcDbLine
 10
37967.68705247327
 20
43407.35982932731
 30
0.0
 11
37965.09305247327
 21
43433.69782932731
 31
0.0
  0
LINE
  5
26A3
330
76
100
AcDbEntity
  8
0
100
AcDbLine
 10
37965.09305247327
 20
43433.69782932731
 30
0.0
 11
37970.28105247327
 21
43486.3718293273
 31
0.0
  0
LINE
  5
26A4
330
76
100
AcDbEntity
  8
0
100
AcDbLine
 10
37970.28105247327
 20
43486.3718293273
 30
0.0
 11
37985.64505247326
 21
43537.0218293273
 31
0.0
  0
LINE
  5
26A5
330
76
100
AcDbEntity
  8
0
100
AcDbLine
 10
37985.64505247326
 20
43537.0218293273
 30
0.0
 11
38010.59705247327
 21
43583.7008293273
 31
0.0
  0
LINE
  5
26A6
330
76
100
AcDbEntity
  8
0
100
AcDbLine
 10
38010.59705247327
 20
43583.7008293273
 30
0.0
 11
38044.17405247327
 21
43624.6158293273
 31
0.0
  0
LINE
  5
26A7
330
76
100
AcDbEntity
  8
0
100
AcDbLine
 10
38044.17405247327
 20
43624.6158293273
 30
0.0
 11
38085.09005247326
 21
43658.1938293273
 31
0.0
  0
LINE
  5
26A8
330
76
100
AcDbEntity
  8
0
100
AcDbLine
 10
38085.09005247326
 20
43658.1938293273
 30
0.0
 11
38131.76805247326
 21
43683.1448293273
 31
0.0
  0
LINE
  5
26A9
330
76
100
AcDbEntity
  8
0
100
AcDbLine
 10
38131.76805247326
 20
43683.1448293273
 30
0.0
 11
38182.41905247327
 21
43698.5088293273
 31
0.0
  0
LINE
  5
26AA
330
76
100
AcDbEntity
  8
0
100
AcDbLine
 10
38182.41905247327
 20
43698.5088293273
 30
0.0
 11
38235.09305247327
 21
43703.6978293273
 31
0.0
  0
LINE
  5
26AB
330
76
100
AcDbEntity
  8
0
100
AcDbLine
 10
38235.09305247327
 20
43703.6978293273
 30
0.0
 11
38711.49105247327
 21
43703.6978293273
 31
0.0
  0
LINE
  5
26AC
330
76
100
AcDbEntity
  8
0
100
AcDbLine
 10
38711.49105247327
 20
43703.6978293273
 30
0.0
 11
38737.82805247327
 21
43706.29082932731
 31
0.0
  0
LINE
  5
26AD
330
76
100
AcDbEntity
  8
0
100
AcDbLine
 10
38737.82805247327
 20
43706.29082932731
 30
0.0
 11
38763.15305247327
 21
43713.9728293273
 31
0.0
  0
LINE
  5
26AE
330
76
100
AcDbEntity
  8
0
100
AcDbLine
 10
38763.15305247327
 20
43713.9728293273
 30
0.0
 11
38786.49305247326
 21
43726.4478293273
 31
0.0
  0
LINE
  5
26AF
330
76
100
AcDbEntity
  8
0
100
AcDbLine
 10
38786.49305247326
 20
43726.4478293273
 30
0.0
 11
38806.95005247327
 21
43743.2378293273
 31
0.0
  0
LINE
  5
26B0
330
76
100
AcDbEntity
  8
0
100
AcDbLine
 10
38806.95005247327
 20
43743.2378293273
 30
0.0
 11
38823.73905247327
 21
43763.69482932731
 31
0.0
  0
LINE
  5
26B1
330
76
100
AcDbEntity
  8
0
100
AcDbLine
 10
38823.73905247327
 20
43763.69482932731
 30
0.0
 11
38836.21505247326
 21
43787.0348293273
 31
0.0
  0
LINE
  5
26B2
330
76
100
AcDbEntity
  8
0
100
AcDbLine
 10
38836.21505247326
 20
43787.0348293273
 30
0.0
 11
38843.89805247327
 21
43812.36082932731
 31
0.0
  0
LINE
  5
26B3
330
76
100
AcDbEntity
  8
0
100
AcDbLine
 10
38843.89805247327
 20
43812.36082932731
 30
0.0
 11
38846.49105247327
 21
43838.6978293273
 31
0.0
  0
LINE
  5
26B4
330
76
100
AcDbEntity
  8
0
100
AcDbLine
 10
38846.49105247327
 20
43838.6978293273
 30
0.0
 11
38843.89805247327
 21
43865.0348293273
 31
0.0
  0
LINE
  5
26B5
330
76
100
AcDbEntity
  8
0
100
AcDbLine
 10
38843.89805247327
 20
43865.0348293273
 30
0.0
 11
38836.21505247326
 21
43890.35882932731
 31
0.0
  0
LINE
  5
26B6
330
76
100
AcDbEntity
  8
0
100
AcDbLine
 10
38836.21505247326
 20
43890.35882932731
 30
0.0
 11
38823.73905247327
 21
43913.6988293273
 31
0.0
  0
LINE
  5
26B7
330
76
100
AcDbEntity
  8
0
100
AcDbLine
 10
38823.73905247327
 20
43913.6988293273
 30
0.0
 11
38806.95005247327
 21
43934.1558293273
 31
0.0
  0
LINE
  5
26B8
330
76
100
AcDbEntity
  8
0
100
AcDbLine
 10
38806.95005247327
 20
43934.1558293273
 30
0.0
 11
38786.49305247326
 21
43950.9458293273
 31
0.0
  0
LINE
  5
26B9
330
76
100
AcDbEntity
  8
0
100
AcDbLine
 10
38786.49305247326
 20
43950.9458293273
 30
0.0
 11
38763.15305247327
 21
43963.4208293273
 31
0.0
  0
LINE
  5
26BA
330
76
100
AcDbEntity
  8
0
100
AcDbLine
 10
38763.15305247327
 20
43963.4208293273
 30
0.0
 11
38737.82805247327
 21
43971.10282932731
 31
0.0
  0
LINE
  5
26BB
330
76
100
AcDbEntity
  8
0
100
AcDbLine
 10
38737.82805247327
 20
43971.10282932731
 30
0.0
 11
38711.49105247327
 21
43973.6978293273
 31
0.0
  0
LINE
  5
26BC
330
76
100
AcDbEntity
  8
0
100
AcDbLine
 10
38711.49105247327
 20
43973.6978293273
 30
0.0
 11
38235.09305247327
 21
43973.6978293273
 31
0.0
  0
LINE
  5
26BD
330
76
100
AcDbEntity
  8
0
100
AcDbLine
 10
38235.09305247327
 20
43973.6978293273
 30
0.0
 11
38182.41905247327
 21
43978.88482932731
 31
0.0
  0
LINE
  5
26BE
330
76
100
AcDbEntity
  8
0
100
AcDbLine
 10
38182.41905247327
 20
43978.88482932731
 30
0.0
 11
38131.76805247326
 21
43994.24882932731
 31
0.0
  0
LINE
  5
26BF
330
76
100
AcDbEntity
  8
0
100
AcDbLine
 10
38131.76805247326
 20
43994.24882932731
 30
0.0
 11
38085.09005247326
 21
44019.19982932731
 31
0.0
  0
LINE
  5
26C0
330
76
100
AcDbEntity
  8
0
100
AcDbLine
 10
38085.09005247326
 20
44019.19982932731
 30
0.0
 11
38044.17405247327
 21
44052.7778293273
 31
0.0
  0
LINE
  5
26C1
330
76
100
AcDbEntity
  8
0
100
AcDbLine
 10
38044.17405247327
 20
44052.7778293273
 30
0.0
 11
38010.59705247327
 21
44093.69282932731
 31
0.0
  0
LINE
  5
26C2
330
76
100
AcDbEntity
  8
0
100
AcDbLine
 10
38010.59705247327
 20
44093.69282932731
 30
0.0
 11
37985.64505247326
 21
44140.37282932731
 31
0.0
  0
LINE
  5
26C3
330
76
100
AcDbEntity
  8
0
100
AcDbLine
 10
37985.64505247326
 20
44140.37282932731
 30
0.0
 11
37970.28105247327
 21
44191.02182932729
 31
0.0
  0
LINE
  5
26C4
330
76
100
AcDbEntity
  8
0
100
AcDbLine
 10
37970.28105247327
 20
44191.02182932729
 30
0.0
 11
37965.09305247327
 21
44243.6978293273
 31
0.0
  0
LINE
  5
26C5
330
76
100
AcDbEntity
  8
0
100
AcDbLine
 10
37965.09305247327
 20
44243.6978293273
 30
0.0
 11
37970.28105247327
 21
44296.37182932729
 31
0.0
  0
LINE
  5
26C6
330
76
100
AcDbEntity
  8
0
100
AcDbLine
 10
37970.28105247327
 20
44296.37182932729
 30
0.0
 11
37985.64505247326
 21
44347.02182932729
 31
0.0
  0
LINE
  5
26C7
330
76
100
AcDbEntity
  8
0
100
AcDbLine
 10
37985.64505247326
 20
44347.02182932729
 30
0.0
 11
38010.59705247327
 21
44393.7008293273
 31
0.0
  0
LINE
  5
26C8
330
76
100
AcDbEntity
  8
0
100
AcDbLine
 10
38010.59705247327
 20
44393.7008293273
 30
0.0
 11
38044.17405247327
 21
44434.6158293273
 31
0.0
  0
LINE
  5
26C9
330
76
100
AcDbEntity
  8
0
100
AcDbLine
 10
38044.17405247327
 20
44434.6158293273
 30
0.0
 11
38085.09005247326
 21
44468.1938293273
 31
0.0
  0
LINE
  5
26CA
330
76
100
AcDbEntity
  8
0
100
AcDbLine
 10
38085.09005247326
 20
44468.1938293273
 30
0.0
 11
38131.76805247326
 21
44493.1448293273
 31
0.0
  0
LINE
  5
26CB
330
76
100
AcDbEntity
  8
0
100
AcDbLine
 10
38131.76805247326
 20
44493.1448293273
 30
0.0
 11
38182.41905247327
 21
44508.5088293273
 31
0.0
  0
LINE
  5
26CC
330
76
100
AcDbEntity
  8
0
100
AcDbLine
 10
38182.41905247327
 20
44508.5088293273
 30
0.0
 11
38235.09305247327
 21
44513.6978293273
 31
0.0
  0
LINE
  5
26CD
330
76
100
AcDbEntity
  8
0
100
AcDbLine
 10
38235.09305247327
 20
44513.6978293273
 30
0.0
 11
38711.49105247327
 21
44513.6978293273
 31
0.0
  0
LINE
  5
26CE
330
76
100
AcDbEntity
  8
0
100
AcDbLine
 10
38711.49105247327
 20
44513.6978293273
 30
0.0
 11
38737.82805247327
 21
44516.2908293273
 31
0.0
  0
LINE
  5
26CF
330
76
100
AcDbEntity
  8
0
100
AcDbLine
 10
38737.82805247327
 20
44516.2908293273
 30
0.0
 11
38763.15305247327
 21
44523.9728293273
 31
0.0
  0
LINE
  5
26D0
330
76
100
AcDbEntity
  8
0
100
AcDbLine
 10
38763.15305247327
 20
44523.9728293273
 30
0.0
 11
38786.49305247326
 21
44536.4478293273
 31
0.0
  0
LINE
  5
26D1
330
76
100
AcDbEntity
  8
0
100
AcDbLine
 10
38786.49305247326
 20
44536.4478293273
 30
0.0
 11
38806.95005247327
 21
44553.23782932731
 31
0.0
  0
LINE
  5
26D2
330
76
100
AcDbEntity
  8
0
100
AcDbLine
 10
38806.95005247327
 20
44553.23782932731
 30
0.0
 11
38823.73905247327
 21
44573.69482932731
 31
0.0
  0
LINE
  5
26D3
330
76
100
AcDbEntity
  8
0
100
AcDbLine
 10
38823.73905247327
 20
44573.69482932731
 30
0.0
 11
38836.21505247326
 21
44597.0348293273
 31
0.0
  0
LINE
  5
26D4
330
76
100
AcDbEntity
  8
0
100
AcDbLine
 10
38836.21505247326
 20
44597.0348293273
 30
0.0
 11
38843.89805247327
 21
44622.3608293273
 31
0.0
  0
LINE
  5
26D5
330
76
100
AcDbEntity
  8
0
100
AcDbLine
 10
38843.89805247327
 20
44622.3608293273
 30
0.0
 11
38846.49105247327
 21
44648.6978293273
 31
0.0
  0
LINE
  5
26D6
330
76
100
AcDbEntity
  8
0
100
AcDbLine
 10
38846.49105247327
 20
44648.6978293273
 30
0.0
 11
38843.89805247327
 21
44675.0348293273
 31
0.0
  0
LINE
  5
26D7
330
76
100
AcDbEntity
  8
0
100
AcDbLine
 10
38843.89805247327
 20
44675.0348293273
 30
0.0
 11
38836.21505247326
 21
44700.3588293273
 31
0.0
  0
LINE
  5
26D8
330
76
100
AcDbEntity
  8
0
100
AcDbLine
 10
38836.21505247326
 20
44700.3588293273
 30
0.0
 11
38823.73905247327
 21
44723.6988293273
 31
0.0
  0
LINE
  5
26D9
330
76
100
AcDbEntity
  8
0
100
AcDbLine
 10
38823.73905247327
 20
44723.6988293273
 30
0.0
 11
38806.95005247327
 21
44744.15582932731
 31
0.0
  0
LINE
  5
26DA
330
76
100
AcDbEntity
  8
0
100
AcDbLine
 10
38806.95005247327
 20
44744.15582932731
 30
0.0
 11
38786.49305247326
 21
44760.9458293273
 31
0.0
  0
LINE
  5
26DB
330
76
100
AcDbEntity
  8
0
100
AcDbLine
 10
38786.49305247326
 20
44760.9458293273
 30
0.0
 11
38763.15305247327
 21
44773.42082932731
 31
0.0
  0
LINE
  5
26DC
330
76
100
AcDbEntity
  8
0
100
AcDbLine
 10
38763.15305247327
 20
44773.42082932731
 30
0.0
 11
38737.82805247327
 21
44781.1028293273
 31
0.0
  0
LINE
  5
26DD
330
76
100
AcDbEntity
  8
0
100
AcDbLine
 10
38737.82805247327
 20
44781.1028293273
 30
0.0
 11
38711.49105247327
 21
44783.6978293273
 31
0.0
  0
LINE
  5
26DE
330
76
100
AcDbEntity
  8
0
100
AcDbLine
 10
38711.49105247327
 20
44783.6978293273
 30
0.0
 11
38140.59305247327
 21
44783.6978293273
 31
0.0
  0
LINE
  5
26DF
330
76
100
AcDbEntity
  8
0
100
AcDbLine
 10
38140.59305247327
 20
44783.6978293273
 30
0.0
 11
38097.79505247327
 21
44787.9128293273
 31
0.0
  0
LINE
  5
26E0
330
76
100
AcDbEntity
  8
0
100
AcDbLine
 10
38097.79505247327
 20
44787.9128293273
 30
0.0
 11
38056.64205247327
 21
44800.3958293273
 31
0.0
  0
LINE
  5
26E1
330
76
100
AcDbEntity
  8
0
100
AcDbLine
 10
38056.64205247327
 20
44800.3958293273
 30
0.0
 11
38018.71505247326
 21
44820.6678293273
 31
0.0
  0
LINE
  5
26E2
330
76
100
AcDbEntity
  8
0
100
AcDbLine
 10
38018.71505247326
 20
44820.6678293273
 30
0.0
 11
37985.47205247327
 21
44847.9498293273
 31
0.0
  0
LINE
  5
26E3
330
76
100
AcDbEntity
  8
0
100
AcDbLine
 10
37985.47205247327
 20
44847.9498293273
 30
0.0
 11
37958.19005247327
 21
44881.19482932731
 31
0.0
  0
LINE
  5
26E4
330
76
100
AcDbEntity
  8
0
100
AcDbLine
 10
37958.19005247327
 20
44881.19482932731
 30
0.0
 11
37937.91705247327
 21
44919.1208293273
 31
0.0
  0
LINE
  5
26E5
330
76
100
AcDbEntity
  8
0
100
AcDbLine
 10
37937.91705247327
 20
44919.1208293273
 30
0.0
 11
37926.64005247327
 21
44954.5988293273
 31
0.0
  0
LINE
  5
26E6
330
76
100
AcDbEntity
  8
0
100
AcDbLine
 10
37926.64005247327
 20
44954.5988293273
 30
0.0
 11
37926.64005247327
 21
45297.08482932731
 31
0.0
  0
LINE
  5
26E7
330
76
100
AcDbEntity
  8
0
100
AcDbLine
 10
37926.64005245503
 20
45297.08482932751
 30
0.0
 11
37926.64960223248
 21
52275.44791361239
 31
0.0
  0
LINE
  5
26E9
330
76
100
AcDbEntity
  8
0
100
AcDbLine
 10
37856.29927545166
 20
52739.19496746444
 30
0.0
 11
36926.64305247321
 21
52739.19496746444
 31
0.0
  0
LINE
  5
26EA
330
76
100
AcDbEntity
  8
0
100
AcDbLine
 10
36926.64305247327
 20
52739.19496746423
 30
0.0
 11
36922.73605247327
 21
52738.96596746422
 31
0.0
  0
LINE
  5
26EB
330
76
100
AcDbEntity
  8
0
100
AcDbLine
 10
36922.73605247327
 20
52738.96596746422
 30
0.0
 11
36338.42205247327
 21
53142.92796746423
 31
0.0
  0
LINE
  5
26EC
330
76
100
AcDbEntity
  8
0
100
AcDbLine
 10
36338.42205247327
 20
53142.92796746423
 30
0.0
 11
36254.32905247327
 21
53029.29796746423
 31
0.0
  0
LINE
  5
26ED
330
76
100
AcDbEntity
  8
0
100
AcDbLine
 10
36254.32905247327
 20
53029.29796746423
 30
0.0
 11
36069.45105247327
 21
53166.12096746423
 31
0.0
  0
LINE
  5
26EE
330
76
100
AcDbEntity
  8
0
100
AcDbLine
 10
36069.45105247327
 20
53166.12096746423
 30
0.0
 11
35998.06605247327
 21
53069.66196746423
 31
0.0
  0
LINE
  5
26EF
330
76
100
AcDbEntity
  8
0
100
AcDbLine
 10
35998.06605247327
 20
53069.66196746423
 30
0.0
 11
35684.57805247327
 21
53301.66496746423
 31
0.0
  0
LINE
  5
26F0
330
76
100
AcDbEntity
  8
0
100
AcDbLine
 10
35684.57805247327
 20
53301.66496746423
 30
0.0
 11
35755.96405247327
 21
53398.12296746423
 31
0.0
  0
LINE
  5
26F1
330
76
100
AcDbEntity
  8
0
100
AcDbLine
 10
35755.96405247327
 20
53398.12296746423
 30
0.0
 11
35587.16205247327
 21
53523.04696746423
 31
0.0
  0
LINE
  5
26F2
330
76
100
AcDbEntity
  8
0
100
AcDbLine
 10
35587.16205247327
 20
53523.04696746423
 30
0.0
 11
35563.04805247326
 21
53540.89396746424
 31
0.0
  0
LINE
  5
26F3
330
76
100
AcDbEntity
  8
0
100
AcDbLine
 10
35563.04805247444
 20
53540.89396746569
 30
0.0
 11
35647.14105247322
 21
53654.52296746444
 31
0.0
  0
LINE
  5
26F5
330
76
100
AcDbEntity
  8
0
100
AcDbLine
 10
34354.18005247322
 20
54638.71296746444
 30
0.0
 11
34251.61305247322
 21
54557.66496746445
 31
0.0
  0
LINE
  5
26F6
330
76
100
AcDbEntity
  8
0
100
AcDbLine
 10
34251.61305247327
 20
54557.66496746423
 30
0.0
 11
34080.06205247327
 21
54462.79796746423
 31
0.0
  0
LINE
  5
26F7
330
76
100
AcDbEntity
  8
0
100
AcDbLine
 10
34080.06205247327
 20
54462.79796746423
 30
0.0
 11
33893.30105247327
 21
54403.22096746423
 31
0.0
  0
LINE
  5
26F8
330
76
100
AcDbEntity
  8
0
100
AcDbLine
 10
33893.30105247327
 20
54403.22096746423
 30
0.0
 11
33698.50505247327
 21
54381.22396746423
 31
0.0
  0
LINE
  5
26F9
330
76
100
AcDbEntity
  8
0
100
AcDbLine
 10
33698.50505247327
 20
54381.22396746423
 30
0.0
 11
33503.16005247327
 21
54397.65296746423
 31
0.0
  0
LINE
  5
26FA
330
76
100
AcDbEntity
  8
0
100
AcDbLine
 10
33503.16005247327
 20
54397.65296746423
 30
0.0
 11
33314.77405247327
 21
54451.87496746423
 31
0.0
  0
LINE
  5
26FB
330
76
100
AcDbEntity
  8
0
100
AcDbLine
 10
33314.77405247327
 20
54451.87496746423
 30
0.0
 11
33140.58605247327
 21
54541.80796746423
 31
0.0
  0
LINE
  5
26FC
330
76
100
AcDbEntity
  8
0
100
AcDbLine
 10
33140.58605247327
 20
54541.80796746423
 30
0.0
 11
32987.29005247327
 21
54663.99696746424
 31
0.0
  0
LINE
  5
26FD
330
76
100
AcDbEntity
  8
0
100
AcDbLine
 10
32987.29005247327
 20
54663.99696746424
 30
0.0
 11
32860.77705247327
 21
54813.74296746422
 31
0.0
  0
LINE
  5
26FE
330
76
100
AcDbEntity
  8
0
100
AcDbLine
 10
32860.77705247327
 20
54813.74296746422
 30
0.0
 11
32765.90905247327
 21
54985.29196746423
 31
0.0
  0
LINE
  5
26FF
330
76
100
AcDbEntity
  8
0
100
AcDbLine
 10
32765.90905247327
 20
54985.29196746423
 30
0.0
 11
32706.33105247327
 21
55172.05396746423
 31
0.0
  0
LINE
  5
2700
330
76
100
AcDbEntity
  8
0
100
AcDbLine
 10
32706.33105247327
 20
55172.05396746423
 30
0.0
 11
32684.33505247327
 21
55366.85096746422
 31
0.0
  0
LINE
  5
2701
330
76
100
AcDbEntity
  8
0
100
AcDbLine
 10
32684.33505247327
 20
55366.85096746422
 30
0.0
 11
32700.76405247326
 21
55562.19496746423
 31
0.0
  0
LINE
  5
2702
330
76
100
AcDbEntity
  8
0
100
AcDbLine
 10
32700.76405247326
 20
55562.19496746423
 30
0.0
 11
32754.98605247327
 21
55750.58196746423
 31
0.0
  0
LINE
  5
2703
330
76
100
AcDbEntity
  8
0
100
AcDbLine
 10
32754.98605247327
 20
55750.58196746423
 30
0.0
 11
32844.91905247327
 21
55924.77096746423
 31
0.0
  0
LINE
  5
2704
330
76
100
AcDbEntity
  8
0
100
AcDbLine
 10
32844.91905247327
 20
55924.77096746423
 30
0.0
 11
32967.10705247327
 21
56078.06496746423
 31
0.0
  0
LINE
  5
2705
330
76
100
AcDbEntity
  8
0
100
AcDbLine
 10
32967.10705247327
 20
56078.06496746423
 30
0.0
 11
33116.85305247326
 21
56204.57796746423
 31
0.0
  0
LINE
  5
2706
330
76
100
AcDbEntity
  8
0
100
AcDbLine
 10
33116.85305247326
 20
56204.57796746423
 30
0.0
 11
33288.40305247327
 21
56299.44596746423
 31
0.0
  0
LINE
  5
2707
330
76
100
AcDbEntity
  8
0
100
AcDbLine
 10
33288.40305247327
 20
56299.44596746423
 30
0.0
 11
33475.16505247327
 21
56359.02296746423
 31
0.0
  0
LINE
  5
2708
330
76
100
AcDbEntity
  8
0
100
AcDbLine
 10
33475.16505247327
 20
56359.02296746423
 30
0.0
 11
33669.96205247327
 21
56381.02096746422
 31
0.0
  0
LINE
  5
2709
330
76
100
AcDbEntity
  8
0
100
AcDbLine
 10
33669.96205247327
 20
56381.02096746422
 30
0.0
 11
33865.30605247327
 21
56364.59296746423
 31
0.0
  0
LINE
  5
270A
330
76
100
AcDbEntity
  8
0
100
AcDbLine
 10
33865.30605247327
 20
56364.59296746423
 30
0.0
 11
34053.69305247327
 21
56310.36896746423
 31
0.0
  0
LINE
  5
270B
330
76
100
AcDbEntity
  8
0
100
AcDbLine
 10
34053.69305247327
 20
56310.36896746423
 30
0.0
 11
34227.88105247327
 21
56220.43596746422
 31
0.0
  0
LINE
  5
270C
330
76
100
AcDbEntity
  8
0
100
AcDbLine
 10
34227.88105247327
 20
56220.43596746422
 30
0.0
 11
34381.17605247327
 21
56098.24896746423
 31
0.0
  0
LINE
  5
270D
330
76
100
AcDbEntity
  8
0
100
AcDbLine
 10
34381.17605247327
 20
56098.24896746423
 30
0.0
 11
34507.68905247327
 21
55948.50196746423
 31
0.0
  0
LINE
  5
270E
330
76
100
AcDbEntity
  8
0
100
AcDbLine
 10
34507.68905247327
 20
55948.50196746423
 30
0.0
 11
34602.55705247327
 21
55776.95096746422
 31
0.0
  0
LINE
  5
270F
330
76
100
AcDbEntity
  8
0
100
AcDbLine
 10
34602.55705247327
 20
55776.95096746422
 30
0.0
 11
34662.13405247327
 21
55590.18896746423
 31
0.0
  0
LINE
  5
2710
330
76
100
AcDbEntity
  8
0
100
AcDbLine
 10
34662.13405247327
 20
55590.18896746423
 30
0.0
 11
34684.13105247327
 21
55395.39296746423
 31
0.0
  0
LINE
  5
2711
330
76
100
AcDbEntity
  8
0
100
AcDbLine
 10
34684.13105247327
 20
55395.39296746423
 30
0.0
 11
34667.70305247327
 21
55200.04796746422
 31
0.0
  0
LINE
  5
2712
330
76
100
AcDbEntity
  8
0
100
AcDbLine
 10
34667.70305247327
 20
55200.04796746422
 30
0.0
 11
34613.48005247327
 21
55011.66396746423
 31
0.0
  0
LINE
  5
2713
330
76
100
AcDbEntity
  8
0
100
AcDbLine
 10
34613.48005247327
 20
55011.66396746423
 30
0.0
 11
34523.54705247327
 21
54837.47496746422
 31
0.0
  0
LINE
  5
2714
330
76
100
AcDbEntity
  8
0
100
AcDbLine
 10
34523.54705247327
 20
54837.47496746422
 30
0.0
 11
34480.65305247327
 21
54776.37896746423
 31
0.0
  0
LINE
  5
2715
330
76
100
AcDbEntity
  8
0
100
AcDbLine
 10
34480.65305247327
 20
54776.37896746423
 30
0.0
 11
35710.13805247327
 21
53739.64596746422
 31
0.0
  0
LINE
  5
2716
330
76
100
AcDbEntity
  8
0
100
AcDbLine
 10
35710.13805247327
 20
53739.64596746422
 30
0.0
 11
35795.05005247327
 21
53854.38196746424
 31
0.0
  0
LINE
  5
2717
330
76
100
AcDbEntity
  8
0
100
AcDbLine
 10
35795.05005247327
 20
53854.38196746424
 30
0.0
 11
35819.16605247327
 21
53836.53596746423
 31
0.0
  0
LINE
  5
2718
330
76
100
AcDbEntity
  8
0
100
AcDbLine
 10
35819.16605247327
 20
53836.53596746423
 30
0.0
 11
35987.96605247327
 21
53711.61096746423
 31
0.0
  0
LINE
  5
2719
330
76
100
AcDbEntity
  8
0
100
AcDbLine
 10
35987.96605247327
 20
53711.61096746423
 30
0.0
 11
36059.35205247327
 21
53808.06896746423
 31
0.0
  0
LINE
  5
271A
330
76
100
AcDbEntity
  8
0
100
AcDbLine
 10
36059.35205247327
 20
53808.06896746423
 30
0.0
 11
36372.84005247327
 21
53576.06596746423
 31
0.0
  0
LINE
  5
271B
330
76
100
AcDbEntity
  8
0
100
AcDbLine
 10
36372.84005247327
 20
53576.06596746423
 30
0.0
 11
36301.45405247326
 21
53479.60796746423
 31
0.0
  0
LINE
  5
271C
330
76
100
AcDbEntity
  8
0
100
AcDbLine
 10
36301.45405247326
 20
53479.60796746423
 30
0.0
 11
36486.33205247327
 21
53342.78596746423
 31
0.0
  0
LINE
  5
271D
330
76
100
AcDbEntity
  8
0
100
AcDbLine
 10
36486.33205247327
 20
53342.78596746423
 30
0.0
 11
36398.16405247326
 21
53223.12096746423
 31
0.0
  0
LINE
  5
271E
330
76
100
AcDbEntity
  8
0
100
AcDbLine
 10
36398.16405247326
 20
53223.12096746423
 30
0.0
 11
36926.64305247327
 21
52889.76092023414
 31
0.0
  0
LINE
  5
2724
330
76
100
AcDbEntity
  8
0
100
AcDbLine
 10
37388.62905247327
 20
54774.20796746423
 30
0.0
 11
36311.20505247327
 21
55574.20796746423
 31
0.0
  0
LINE
  5
2725
330
76
100
AcDbEntity
  8
0
100
AcDbLine
 10
36311.20505247327
 20
55574.20796746423
 30
0.0
 11
35518.52405247327
 21
56366.88896746423
 31
0.0
  0
LINE
  5
2726
330
76
100
AcDbEntity
  8
0
100
AcDbLine
 10
35518.52405247327
 20
56366.88896746423
 30
0.0
 11
35518.52405247327
 21
57014.32596746422
 31
0.0
  0
LINE
  5
2727
330
76
100
AcDbEntity
  8
0
100
AcDbLine
 10
35518.52405247327
 20
57014.32596746422
 30
0.0
 11
37185.86905247327
 21
58179.88796746423
 31
0.0
  0
LINE
  5
2728
330
76
100
AcDbEntity
  8
0
100
AcDbLine
 10
37185.86905247327
 20
58179.88796746423
 30
0.0
 11
37230.42705247327
 21
58325.46396746423
 31
0.0
  0
LINE
  5
2729
330
76
100
AcDbEntity
  8
0
100
AcDbLine
 10
37230.42705247327
 20
58325.46396746423
 30
0.0
 11
37304.06605247327
 21
58463.23296746423
 31
0.0
  0
LINE
  5
272A
330
76
100
AcDbEntity
  8
0
100
AcDbLine
 10
37304.06605247327
 20
58463.23296746423
 30
0.0
 11
37403.16805247327
 21
58583.98896746423
 31
0.0
  0
LINE
  5
272B
330
76
100
AcDbEntity
  8
0
100
AcDbLine
 10
37403.16805247327
 20
58583.98896746423
 30
0.0
 11
37523.92305247326
 21
58683.08996746423
 31
0.0
  0
LINE
  5
272C
330
76
100
AcDbEntity
  8
0
100
AcDbLine
 10
37523.92305247326
 20
58683.08996746423
 30
0.0
 11
37661.69305247327
 21
58756.72996746423
 31
0.0
  0
LINE
  5
272D
330
76
100
AcDbEntity
  8
0
100
AcDbLine
 10
37661.69305247327
 20
58756.72996746423
 30
0.0
 11
37811.18105247327
 21
58802.07596746422
 31
0.0
  0
LINE
  5
272E
330
76
100
AcDbEntity
  8
0
100
AcDbLine
 10
37811.18105247327
 20
58802.07596746422
 30
0.0
 11
37966.64305247327
 21
58817.38796746422
 31
0.0
  0
LINE
  5
272F
330
76
100
AcDbEntity
  8
0
100
AcDbLine
 10
37966.64305247327
 20
58817.38796746422
 30
0.0
 11
38122.10605247327
 21
58802.07596746422
 31
0.0
  0
LINE
  5
2730
330
76
100
AcDbEntity
  8
0
100
AcDbLine
 10
38122.10605247327
 20
58802.07596746422
 30
0.0
 11
38271.59405247327
 21
58756.72996746423
 31
0.0
  0
LINE
  5
2731
330
76
100
AcDbEntity
  8
0
100
AcDbLine
 10
38271.59405247327
 20
58756.72996746423
 30
0.0
 11
38409.36305247327
 21
58683.08996746423
 31
0.0
  0
LINE
  5
2732
330
76
100
AcDbEntity
  8
0
100
AcDbLine
 10
38409.36305247327
 20
58683.08996746423
 30
0.0
 11
38530.11905247327
 21
58583.98896746423
 31
0.0
  0
LINE
  5
2733
330
76
100
AcDbEntity
  8
0
100
AcDbLine
 10
38530.11905247327
 20
58583.98896746423
 30
0.0
 11
38629.22105247326
 21
58463.23296746423
 31
0.0
  0
LINE
  5
2734
330
76
100
AcDbEntity
  8
0
100
AcDbLine
 10
38629.22105247326
 20
58463.23296746423
 30
0.0
 11
38702.86005247327
 21
58325.46396746423
 31
0.0
  0
LINE
  5
2735
330
76
100
AcDbEntity
  8
0
100
AcDbLine
 10
38702.86005247327
 20
58325.46396746423
 30
0.0
 11
38747.41805247327
 21
58179.88796746423
 31
0.0
  0
LINE
  5
2736
330
76
100
AcDbEntity
  8
0
100
AcDbLine
 10
38747.41805247327
 20
58179.88796746423
 30
0.0
 11
40414.76205247326
 21
57014.32596746422
 31
0.0
  0
LINE
  5
2737
330
76
100
AcDbEntity
  8
0
100
AcDbLine
 10
40414.76205247326
 20
57014.32596746422
 30
0.0
 11
40414.76205247326
 21
56366.88996746423
 31
0.0
  0
LINE
  5
2738
330
76
100
AcDbEntity
  8
0
100
AcDbLine
 10
40414.76205247326
 20
56366.88996746423
 30
0.0
 11
39622.08205247327
 21
55574.20796746423
 31
0.0
  0
LINE
  5
2739
330
76
100
AcDbEntity
  8
0
100
AcDbLine
 10
39622.08205247327
 20
55574.20796746423
 30
0.0
 11
38544.65705247327
 21
54774.20796746423
 31
0.0
  0
LINE
  5
273A
330
76
100
AcDbEntity
  8
0
100
AcDbLine
 10
38544.65705247327
 20
54774.20796746423
 30
0.0
 11
38256.64305247327
 21
53774.20796746423
 31
0.0
  0
LINE
  5
273B
330
76
100
AcDbEntity
  8
0
100
AcDbLine
 10
38256.64305247327
 20
53774.20796746423
 30
0.0
 11
38006.64305247327
 21
52991.19496746423
 31
0.0
  0
LINE
  5
273D
330
76
100
AcDbEntity
  8
0
100
AcDbLine
 10
38006.65106392134
 20
52991.19496745235
 30
0.0
 11
38006.64105247327
 21
46240.7508293273
 31
0.0
  0
LINE
  5
273E
330
76
100
AcDbEntity
  8
0
100
AcDbLine
 10
38006.64105247327
 20
46240.7508293273
 30
0.0
 11
38016.64105247327
 21
46240.7508293273
 31
0.0
  0
LINE
  5
273F
330
76
100
AcDbEntity
  8
0
100
AcDbLine
 10
38016.64105247327
 20
46240.7508293273
 30
0.0
 11
38016.79705247327
 21
46241.59582932731
 31
0.0
  0
LINE
  5
2740
330
76
100
AcDbEntity
  8
0
100
AcDbLine
 10
38016.79705247327
 20
46241.59582932731
 30
0.0
 11
38018.50205247327
 21
46247.2168293273
 31
0.0
  0
LINE
  5
2741
330
76
100
AcDbEntity
  8
0
100
AcDbLine
 10
38018.50205247327
 20
46247.2168293273
 30
0.0
 11
38021.27105247327
 21
46252.3978293273
 31
0.0
  0
LINE
  5
2742
330
76
100
AcDbEntity
  8
0
100
AcDbLine
 10
38021.27105247327
 20
46252.3978293273
 30
0.0
 11
38024.99805247327
 21
46256.9388293273
 31
0.0
  0
LINE
  5
2743
330
76
100
AcDbEntity
  8
0
100
AcDbLine
 10
38024.99805247327
 20
46256.9388293273
 30
0.0
 11
38026.84605247327
 21
46258.6378293273
 31
0.0
  0
LINE
  5
2744
330
76
100
AcDbEntity
  8
0
100
AcDbLine
 10
38026.84605247327
 20
46258.6378293273
 30
0.0
 11
38046.18605247327
 21
46290.75082932731
 31
0.0
  0
LINE
  5
2745
330
76
100
AcDbEntity
  8
0
100
AcDbLine
 10
38046.18605247327
 20
46290.75082932731
 30
0.0
 11
39855.66005247327
 21
46290.75082932731
 31
0.0
  0
LINE
  5
2746
330
76
100
AcDbEntity
  8
0
100
AcDbLine
 10
39855.66005247327
 20
46290.75082932731
 30
0.0
 11
39782.04805247326
 21
46333.2498293273
 31
0.0
  0
LINE
  5
2747
330
76
100
AcDbEntity
  8
0
100
AcDbLine
 10
39782.04805247326
 20
46333.2498293273
 30
0.0
 11
39901.73205247327
 21
46540.54982932731
 31
0.0
  0
LINE
  5
2748
330
76
100
AcDbEntity
  8
0
100
AcDbLine
 10
39901.73205247327
 20
46540.54982932731
 30
0.0
 11
39797.35005247327
 21
46600.81482932731
 31
0.0
  0
LINE
  5
2749
330
76
100
AcDbEntity
  8
0
100
AcDbLine
 10
39797.35005247327
 20
46600.81482932731
 30
0.0
 11
39992.48205247327
 21
46938.7938293273
 31
0.0
  0
LINE
  5
274A
330
76
100
AcDbEntity
  8
0
100
AcDbLine
 10
39992.48205247327
 20
46938.7938293273
 30
0.0
 11
40095.31205247327
 21
46879.4258293273
 31
0.0
  0
LINE
  5
274B
330
76
100
AcDbEntity
  8
0
100
AcDbLine
 10
40095.31205247327
 20
46879.4258293273
 30
0.0
 11
40215.31205247327
 21
47087.27182932729
 31
0.0
  0
LINE
  5
274C
330
76
100
AcDbEntity
  8
0
100
AcDbLine
 10
40215.31205247327
 20
47087.27182932729
 30
0.0
 11
40327.83805247326
 21
47022.30482932731
 31
0.0
  0
LINE
  5
274D
330
76
100
AcDbEntity
  8
0
100
AcDbLine
 10
40327.83805247326
 20
47022.30482932731
 30
0.0
 11
40377.83805247326
 21
47108.90682932729
 31
0.0
  0
LINE
  5
274E
330
76
100
AcDbEntity
  8
0
100
AcDbLine
 10
40377.83805247326
 20
47108.90682932729
 30
0.0
 11
40265.31205247327
 21
47173.8738293273
 31
0.0
  0
LINE
  5
274F
330
76
100
AcDbEntity
  8
0
100
AcDbLine
 10
40265.31205247327
 20
47173.8738293273
 30
0.0
 11
40385.31205247327
 21
47381.71982932731
 31
0.0
  0
LINE
  5
2750
330
76
100
AcDbEntity
  8
0
100
AcDbLine
 10
40385.31205247327
 20
47381.71982932731
 30
0.0
 11
40282.48205247327
 21
47441.0888293273
 31
0.0
  0
LINE
  5
2751
330
76
100
AcDbEntity
  8
0
100
AcDbLine
 10
40282.48205247327
 20
47441.0888293273
 30
0.0
 11
40477.61505247327
 21
47779.0678293273
 31
0.0
  0
LINE
  5
2752
330
76
100
AcDbEntity
  8
0
100
AcDbLine
 10
40477.61505247327
 20
47779.0678293273
 30
0.0
 11
40581.99705247327
 21
47718.8028293273
 31
0.0
  0
LINE
  5
2753
330
76
100
AcDbEntity
  8
0
100
AcDbLine
 10
40581.99705247327
 20
47718.8028293273
 30
0.0
 11
40701.68105247327
 21
47926.1018293273
 31
0.0
  0
LINE
  5
2754
330
76
100
AcDbEntity
  8
0
100
AcDbLine
 10
40701.68105247327
 20
47926.1018293273
 30
0.0
 11
40822.92505247327
 21
47856.1018293273
 31
0.0
  0
LINE
  5
2755
330
76
100
AcDbEntity
  8
0
100
AcDbLine
 10
40822.92505247327
 20
47856.1018293273
 30
0.0
 11
40916.64305247326
 21
48018.4278293273
 31
0.0
  0
LINE
  5
2756
330
76
100
AcDbEntity
  8
0
100
AcDbLine
 10
40916.64305247326
 20
48018.4278293273
 30
0.0
 11
40852.68205247326
 21
48071.9358293273
 31
0.0
  0
LINE
  5
2757
330
76
100
AcDbEntity
  8
0
100
AcDbLine
 10
40852.68205247326
 20
48071.9358293273
 30
0.0
 11
40799.93005247326
 21
48145.3218293273
 31
0.0
  0
LINE
  5
2758
330
76
100
AcDbEntity
  8
0
100
AcDbLine
 10
40799.93005247326
 20
48145.3218293273
 30
0.0
 11
40762.50905247326
 21
48227.5888293273
 31
0.0
  0
LINE
  5
2759
330
76
100
AcDbEntity
  8
0
100
AcDbLine
 10
40762.50905247326
 20
48227.5888293273
 30
0.0
 11
40741.85705247327
 21
48315.5758293273
 31
0.0
  0
LINE
  5
275A
330
76
100
AcDbEntity
  8
0
100
AcDbLine
 10
40741.85705247327
 20
48315.5758293273
 30
0.0
 11
40738.76805247326
 21
48405.89982932731
 31
0.0
  0
LINE
  5
275B
330
76
100
AcDbEntity
  8
0
100
AcDbLine
 10
40738.76805247326
 20
48405.89982932731
 30
0.0
 11
40753.35805247327
 21
48495.09182932729
 31
0.0
  0
LINE
  5
275C
330
76
100
AcDbEntity
  8
0
100
AcDbLine
 10
40753.35805247327
 20
48495.09182932729
 30
0.0
 11
40785.06905247326
 21
48579.72382932731
 31
0.0
  0
LINE
  5
275D
330
76
100
AcDbEntity
  8
0
100
AcDbLine
 10
40785.06905247326
 20
48579.72382932731
 30
0.0
 11
40832.68105247327
 21
48656.5428293273
 31
0.0
  0
LINE
  5
275E
330
76
100
AcDbEntity
  8
0
100
AcDbLine
 10
40832.68105247327
 20
48656.5428293273
 30
0.0
 11
40894.36605247326
 21
48722.5978293273
 31
0.0
  0
LINE
  5
275F
330
76
100
AcDbEntity
  8
0
100
AcDbLine
 10
40894.36605247326
 20
48722.5978293273
 30
0.0
 11
40967.75105247327
 21
48775.3498293273
 31
0.0
  0
LINE
  5
2760
330
76
100
AcDbEntity
  8
0
100
AcDbLine
 10
40967.75105247327
 20
48775.3498293273
 30
0.0
 11
41050.01805247326
 21
48812.7708293273
 31
0.0
  0
LINE
  5
2761
330
76
100
AcDbEntity
  8
0
100
AcDbLine
 10
41050.01805247326
 20
48812.7708293273
 30
0.0
 11
41138.00405247326
 21
48833.4228293273
 31
0.0
  0
LINE
  5
2762
330
76
100
AcDbEntity
  8
0
100
AcDbLine
 10
41138.00405247326
 20
48833.4228293273
 30
0.0
 11
41228.33005247326
 21
48836.5128293273
 31
0.0
  0
LINE
  5
2763
330
76
100
AcDbEntity
  8
0
100
AcDbLine
 10
41228.33005247326
 20
48836.5128293273
 30
0.0
 11
41317.52205247327
 21
48821.9218293273
 31
0.0
  0
LINE
  5
2764
330
76
100
AcDbEntity
  8
0
100
AcDbLine
 10
41317.52205247327
 20
48821.9218293273
 30
0.0
 11
41402.15305247326
 21
48790.2108293273
 31
0.0
  0
LINE
  5
2765
330
76
100
AcDbEntity
  8
0
100
AcDbLine
 10
41402.15305247326
 20
48790.2108293273
 30
0.0
 11
41478.97305247326
 21
48742.5988293273
 31
0.0
  0
LINE
  5
2766
330
76
100
AcDbEntity
  8
0
100
AcDbLine
 10
41478.97305247326
 20
48742.5988293273
 30
0.0
 11
41545.02805247326
 21
48680.9148293273
 31
0.0
  0
LINE
  5
2767
330
76
100
AcDbEntity
  8
0
100
AcDbLine
 10
41545.02805247326
 20
48680.9148293273
 30
0.0
 11
41597.77905247326
 21
48607.5288293273
 31
0.0
  0
LINE
  5
2768
330
76
100
AcDbEntity
  8
0
100
AcDbLine
 10
41597.77905247326
 20
48607.5288293273
 30
0.0
 11
41635.20005247326
 21
48525.2618293273
 31
0.0
  0
LINE
  5
2769
330
76
100
AcDbEntity
  8
0
100
AcDbLine
 10
41635.20005247326
 20
48525.2618293273
 30
0.0
 11
41655.85205247326
 21
48437.2758293273
 31
0.0
  0
LINE
  5
276A
330
76
100
AcDbEntity
  8
0
100
AcDbLine
 10
41655.85205247326
 20
48437.2758293273
 30
0.0
 11
41658.94205247327
 21
48346.9508293273
 31
0.0
  0
LINE
  5
276B
330
76
100
AcDbEntity
  8
0
100
AcDbLine
 10
41658.94205247327
 20
48346.9508293273
 30
0.0
 11
41644.35105247326
 21
48257.7578293273
 31
0.0
  0
LINE
  5
276C
330
76
100
AcDbEntity
  8
0
100
AcDbLine
 10
41644.35105247326
 20
48257.7578293273
 30
0.0
 11
41612.64005247327
 21
48173.1258293273
 31
0.0
  0
LINE
  5
276D
330
76
100
AcDbEntity
  8
0
100
AcDbLine
 10
41612.64005247327
 20
48173.1258293273
 30
0.0
 11
41565.02705247326
 21
48096.3068293273
 31
0.0
  0
LINE
  5
276E
330
76
100
AcDbEntity
  8
0
100
AcDbLine
 10
41565.02705247326
 20
48096.3068293273
 30
0.0
 11
41503.34305247326
 21
48030.2518293273
 31
0.0
  0
LINE
  5
276F
330
76
100
AcDbEntity
  8
0
100
AcDbLine
 10
41503.34305247326
 20
48030.2518293273
 30
0.0
 11
41429.95805247326
 21
47977.5008293273
 31
0.0
  0
LINE
  5
2770
330
76
100
AcDbEntity
  8
0
100
AcDbLine
 10
41429.95805247326
 20
47977.5008293273
 30
0.0
 11
41347.69105247326
 21
47940.07982932731
 31
0.0
  0
LINE
  5
2771
330
76
100
AcDbEntity
  8
0
100
AcDbLine
 10
41347.69105247326
 20
47940.07982932731
 30
0.0
 11
41259.70405247326
 21
47919.4278293273
 31
0.0
  0
LINE
  5
2772
330
76
100
AcDbEntity
  8
0
100
AcDbLine
 10
41259.70405247326
 20
47919.4278293273
 30
0.0
 11
41169.37905247326
 21
47916.33782932731
 31
0.0
  0
LINE
  5
2773
330
76
100
AcDbEntity
  8
0
100
AcDbLine
 10
41169.37905247326
 20
47916.33782932731
 30
0.0
 11
41087.48205247326
 21
47929.0488293273
 31
0.0
  0
LINE
  5
2774
330
76
100
AcDbEntity
  8
0
100
AcDbLine
 10
41087.48205247326
 20
47929.0488293273
 30
0.0
 11
41011.90605247326
 21
47963.42782932731
 31
0.0
  0
LINE
  5
2775
330
76
100
AcDbEntity
  8
0
100
AcDbLine
 10
41011.90605247326
 20
47963.42782932731
 30
0.0
 11
40918.18805247326
 21
47801.10182932729
 31
0.0
  0
LINE
  5
2776
330
76
100
AcDbEntity
  8
0
100
AcDbLine
 10
40918.18805247326
 20
47801.10182932729
 30
0.0
 11
41039.43105247327
 21
47731.1018293273
 31
0.0
  0
LINE
  5
2777
330
76
100
AcDbEntity
  8
0
100
AcDbLine
 10
41039.43105247327
 20
47731.1018293273
 30
0.0
 11
40919.74705247327
 21
47523.80282932731
 31
0.0
  0
LINE
  5
2778
330
76
100
AcDbEntity
  8
0
100
AcDbLine
 10
40919.74705247327
 20
47523.80282932731
 30
0.0
 11
41024.12905247327
 21
47463.53782932731
 31
0.0
  0
LINE
  5
2779
330
76
100
AcDbEntity
  8
0
100
AcDbLine
 10
41024.12905247327
 20
47463.53782932731
 30
0.0
 11
40828.99705247327
 21
47125.55782932731
 31
0.0
  0
LINE
  5
277A
330
76
100
AcDbEntity
  8
0
100
AcDbLine
 10
40828.99705247327
 20
47125.55782932731
 30
0.0
 11
40726.16705247327
 21
47184.9268293273
 31
0.0
  0
LINE
  5
277B
330
76
100
AcDbEntity
  8
0
100
AcDbLine
 10
40726.16705247327
 20
47184.9268293273
 30
0.0
 11
40606.16705247326
 21
46977.08082932731
 31
0.0
  0
LINE
  5
277C
330
76
100
AcDbEntity
  8
0
100
AcDbLine
 10
40606.16705247326
 20
46977.08082932731
 30
0.0
 11
40493.64105247327
 21
47042.0478293273
 31
0.0
  0
LINE
  5
277D
330
76
100
AcDbEntity
  8
0
100
AcDbLine
 10
40493.64105247327
 20
47042.0478293273
 30
0.0
 11
40443.64105247327
 21
46955.44482932731
 31
0.0
  0
LINE
  5
277E
330
76
100
AcDbEntity
  8
0
100
AcDbLine
 10
40443.64105247327
 20
46955.44482932731
 30
0.0
 11
40556.16705247326
 21
46890.4788293273
 31
0.0
  0
LINE
  5
277F
330
76
100
AcDbEntity
  8
0
100
AcDbLine
 10
40556.16705247326
 20
46890.4788293273
 30
0.0
 11
40436.16705247327
 21
46682.6328293273
 31
0.0
  0
LINE
  5
2780
330
76
100
AcDbEntity
  8
0
100
AcDbLine
 10
40436.16705247327
 20
46682.6328293273
 30
0.0
 11
40538.99705247327
 21
46623.26382932731
 31
0.0
  0
LINE
  5
2781
330
76
100
AcDbEntity
  8
0
100
AcDbLine
 10
40538.99705247327
 20
46623.26382932731
 30
0.0
 11
40343.86405247326
 21
46285.2848293273
 31
0.0
  0
LINE
  5
2782
330
76
100
AcDbEntity
  8
0
100
AcDbLine
 10
40343.86405247326
 20
46285.2848293273
 30
0.0
 11
40239.48205247327
 21
46345.5498293273
 31
0.0
  0
LINE
  5
2783
330
76
100
AcDbEntity
  8
0
100
AcDbLine
 10
40239.48205247327
 20
46345.5498293273
 30
0.0
 11
40119.79805247326
 21
46138.25082932731
 31
0.0
  0
LINE
  5
2784
330
76
100
AcDbEntity
  8
0
100
AcDbLine
 10
40119.79805247326
 20
46138.25082932731
 30
0.0
 11
40046.18605247326
 21
46180.75082932731
 31
0.0
  0
LINE
  5
2785
330
76
100
AcDbEntity
  8
0
100
AcDbLine
 10
40046.18605247326
 20
46180.75082932731
 30
0.0
 11
38046.18605247327
 21
46180.75082932731
 31
0.0
  0
LINE
  5
2786
330
76
100
AcDbEntity
  8
0
100
AcDbLine
 10
38046.18605247327
 20
46180.75082932731
 30
0.0
 11
38026.84605247327
 21
46212.86282932731
 31
0.0
  0
LINE
  5
2787
330
76
100
AcDbEntity
  8
0
100
AcDbLine
 10
38026.84605247327
 20
46212.86282932731
 30
0.0
 11
38024.99805247327
 21
46214.5628293273
 31
0.0
  0
LINE
  5
2788
330
76
100
AcDbEntity
  8
0
100
AcDbLine
 10
38024.99805247327
 20
46214.5628293273
 30
0.0
 11
38021.27105247327
 21
46219.1028293273
 31
0.0
  0
LINE
  5
2789
330
76
100
AcDbEntity
  8
0
100
AcDbLine
 10
38021.27105247327
 20
46219.1028293273
 30
0.0
 11
38018.50205247327
 21
46224.2838293273
 31
0.0
  0
LINE
  5
278A
330
76
100
AcDbEntity
  8
0
100
AcDbLine
 10
38018.50205247327
 20
46224.2838293273
 30
0.0
 11
38016.79705247327
 21
46229.9048293273
 31
0.0
  0
LINE
  5
278B
330
76
100
AcDbEntity
  8
0
100
AcDbLine
 10
38016.79705247327
 20
46229.9048293273
 30
0.0
 11
38016.64105247327
 21
46230.7508293273
 31
0.0
  0
LINE
  5
278C
330
76
100
AcDbEntity
  8
0
100
AcDbLine
 10
38016.64105247327
 20
46230.7508293273
 30
0.0
 11
38006.64105247327
 21
46230.7508293273
 31
0.0
  0
LINE
  5
278D
330
76
100
AcDbEntity
  8
0
100
AcDbLine
 10
38006.64105247327
 20
46230.7508293273
 30
0.0
 11
38006.64105247327
 21
46060.8838293273
 31
0.0
  0
LINE
  5
278E
330
76
100
AcDbEntity
  8
0
100
AcDbLine
 10
38006.64105247327
 20
46060.8838293273
 30
0.0
 11
38006.64105247327
 21
45860.8838293273
 31
0.0
  0
LINE
  5
278F
330
76
100
AcDbEntity
  8
0
100
AcDbLine
 10
38006.64105247327
 20
45860.8838293273
 30
0.0
 11
38046.64105247327
 21
45800.1728293273
 31
0.0
  0
LINE
  5
2790
330
76
100
AcDbEntity
  8
0
100
AcDbLine
 10
38046.64105247327
 20
45800.1728293273
 30
0.0
 11
38046.64105247327
 21
44987.1208293273
 31
0.0
  0
LINE
  5
2791
330
76
100
AcDbEntity
  8
0
100
AcDbLine
 10
38046.64105247327
 20
44987.1208293273
 30
0.0
 11
38047.74405247327
 21
44979.3028293273
 31
0.0
  0
LINE
  5
2792
330
76
100
AcDbEntity
  8
0
100
AcDbLine
 10
38047.74405247327
 20
44979.3028293273
 30
0.0
 11
38051.74505247327
 21
44966.1138293273
 31
0.0
  0
LINE
  5
2793
330
76
100
AcDbEntity
  8
0
100
AcDbLine
 10
38051.74505247327
 20
44966.1138293273
 30
0.0
 11
38058.24205247327
 21
44953.95982932731
 31
0.0
  0
LINE
  5
2794
330
76
100
AcDbEntity
  8
0
100
AcDbLine
 10
38058.24205247327
 20
44953.95982932731
 30
0.0
 11
38066.98505247327
 21
44943.30582932731
 31
0.0
  0
LINE
  5
2795
330
76
100
AcDbEntity
  8
0
100
AcDbLine
 10
38066.98505247327
 20
44943.30582932731
 30
0.0
 11
38077.63905247326
 21
44934.5628293273
 31
0.0
  0
LINE
  5
2796
330
76
100
AcDbEntity
  8
0
100
AcDbLine
 10
38077.63905247326
 20
44934.5628293273
 30
0.0
 11
38089.79305247327
 21
44928.06582932731
 31
0.0
  0
LINE
  5
2797
330
76
100
AcDbEntity
  8
0
100
AcDbLine
 10
38089.79305247327
 20
44928.06582932731
 30
0.0
 11
38102.98205247327
 21
44924.06482932731
 31
0.0
  0
LINE
  5
2798
330
76
100
AcDbEntity
  8
0
100
AcDbLine
 10
38102.98205247327
 20
44924.06482932731
 30
0.0
 11
38109.91405247327
 21
44923.0418293273
 31
0.0
  0
LINE
  5
2799
330
76
100
AcDbEntity
  8
0
100
AcDbLine
 10
38109.91405247327
 20
44923.0418293273
 30
0.0
 11
38109.91405247327
 21
44923.0418293273
 31
0.0
  0
LINE
  5
27AC
330
76
100
AcDbEntity
  8
0
  6
Continuous
100
AcDbLine
 10
34354.18005247322
 20
54638.71296746444
 30
0.0
 11
35647.14105247322
 21
53654.52296746444
 31
0.0
  0
LINE
  5
5A5C
330
76
100
AcDbEntity
  8
0
  6
Continuous
100
AcDbLine
 10
37856.29927545166
 20
52739.19496746444
 30
0.0
 11
37926.64960223248
 21
52275.44791361239
 31
0.0
  0
LINE
  5
5A5E
330
76
100
AcDbEntity
  8
0
  6
Continuous
100
AcDbLine
 10
36926.64305247327
 20
52889.76092023414
 30
0.0
 11
37856.29927545166
 21
52889.76092023413
 31
0.0
  0
LINE
  5
5A61
330
76
100
AcDbEntity
  8
0
  6
Continuous
100
AcDbLine
 10
37856.29927545166
 20
52889.76092023413
 30
0.0
 11
37856.29927545166
 21
52991.19496746423
 31
0.0
  0
LINE
  5
5A62
330
76
100
AcDbEntity
  8
0
  6
Continuous
100
AcDbLine
 10
37856.29927545166
 20
52991.19496746423
 30
0.0
 11
37388.62905247327
 21
54774.20796746423
 31
0.0
  0
ENDSEC
  0
SECTION
  2
OBJECTS
  0
DICTIONARY
  5
C
330
0
100
AcDbDictionary
281
     1
  3
ACAD_ASSOCNETWORK
350
27A6
  3
ACAD_CIP_PREVIOUS_PRODUCT_INFO
350
2636
  3
ACAD_COLOR
350
6D
  3
ACAD_DETAILVIEWSTYLE
350
2631
  3
ACAD_GROUP
350
D
  3
ACAD_LAYOUT
350
6C
  3
ACAD_MATERIAL
350
10
  3
ACAD_MLEADERSTYLE
350
70
  3
ACAD_MLINESTYLE
350
69
  3
ACAD_PLOTSETTINGS
350
6B
  3
ACAD_PLOTSTYLENAME
350
E
  3
ACAD_SCALELIST
350
3D
  3
ACAD_SECTIONVIEWSTYLE
350
262F
  3
ACAD_TABLESTYLE
350
6E
  3
ACAD_VISUALSTYLE
350
29
  3
ACDB_RECOMPOSE_DATA
350
7887
  3
AcDbVariableDictionary
350
261F
  0
DICTIONARY
  5
25F7
330
2
100
AcDbDictionary
280
     1
281
     1
  3
ACAD_LAYERSTATES
360
25F8
  0
DICTIONARY
  5
25ED
330
5F
100
AcDbDictionary
280
     1
281
     1
  3
ADSK_XREC_LAYER_RECONCILED
360
25EE
  0
DICTIONARY
  5
279A
330
76
100
AcDbDictionary
280
     1
281
     1
  3
ACAD_SORTENTS
360
279B
  0
DICTIONARY
  5
4C06
330
4BFA
100
AcDbDictionary
280
     1
281
     1
  3
ACAD_ASSOCNETWORK
360
4C15
  3
ACAD_SORTENTS
360
4C07
  3
AcDbDynamicBlockRoundTripPurgePreventer
360
5A48
  0
DICTIONARY
  5
4D16
330
4CEC
100
AcDbDictionary
280
     1
281
     1
  3
ACAD_SORTENTS
360
4D17
  0
DICTIONARY
  5
27A6
102
{ACAD_REACTORS
330
C
102
}
330
C
100
AcDbDictionary
281
     1
  3
ACAD_ASSOCNETWORK
350
27A7
  0
XRECORD
  5
2636
102
{ACAD_REACTORS
330
C
102
}
330
C
100
AcDbXrecord
280
     1
300
ACDMAC
300
2022
300

  0
DICTIONARY
  5
6D
102
{ACAD_REACTORS
330
C
102
}
330
C
100
AcDbDictionary
281
     1
  0
DICTIONARY
  5
2631
102
{ACAD_REACTORS
330
C
102
}
330
C
100
AcDbDictionary
281
     1
  3
Imperial24
350
2632
  0
DICTIONARY
  5
D
102
{ACAD_REACTORS
330
C
102
}
330
C
100
AcDbDictionary
281
     1
  0
DICTIONARY
  5
6C
102
{ACAD_REACTORS
330
C
102
}
330
C
100
AcDbDictionary
281
     1
  3
Layout1
350
75
  3
Model
350
79
  0
DICTIONARY
  5
10
102
{ACAD_REACTORS
330
C
102
}
330
C
100
AcDbDictionary
281
     1
  3
ByBlock
350
19
  3
ByLayer
350
11
  3
Global
350
21
  0
DICTIONARY
  5
70
102
{ACAD_REACTORS
330
C
102
}
330
C
100
AcDbDictionary
281
     1
  3
Standard
350
71
  0
DICTIONARY
  5
69
102
{ACAD_REACTORS
330
C
102
}
330
C
100
AcDbDictionary
281
     1
  3
Standard
350
6A
  0
DICTIONARY
  5
6B
102
{ACAD_REACTORS
330
C
102
}
330
C
100
AcDbDictionary
281
     1
  0
ACDBDICTIONARYWDFLT
  5
E
102
{ACAD_REACTORS
330
C
102
}
330
C
100
AcDbDictionary
281
     1
  3
Normal
350
F
100
AcDbDictionaryWithDefault
340
F
  0
DICTIONARY
  5
3D
102
{ACAD_REACTORS
330
C
102
}
330
C
100
AcDbDictionary
281
     1
  3
A0
350
3E
  3
A1
350
3F
  3
A2
350
40
  3
A3
350
41
  3
A4
350
42
  3
A5
350
43
  3
A6
350
44
  3
A7
350
45
  3
A8
350
46
  3
A9
350
47
  3
B0
350
48
  3
B1
350
49
  3
B2
350
4A
  3
B3
350
4B
  3
B4
350
4C
  3
B5
350
4D
  3
B6
350
4E
  3
B7
350
4F
  3
B8
350
50
  3
B9
350
51
  3
C0
350
52
  3
C1
350
53
  3
C2
350
54
  3
C3
350
55
  3
C4
350
56
  3
C5
350
57
  3
C6
350
58
  3
C7
350
59
  3
C8
350
5A
  3
C9
350
5B
  3
D0
350
5C
  3
D1
350
5D
  3
D2
350
5E
  0
DICTIONARY
  5
262F
102
{ACAD_REACTORS
330
C
102
}
330
C
100
AcDbDictionary
281
     1
  3
Imperial24
350
2630
  0
DICTIONARY
  5
6E
102
{ACAD_REACTORS
330
C
102
}
330
C
100
AcDbDictionary
281
     1
  3
Standard
350
6F
  0
DICTIONARY
  5
29
102
{ACAD_REACTORS
330
C
102
}
330
C
100
AcDbDictionary
281
     1
  3
2dWireframe
350
2F
  3
3D Hidden
350
31
  3
3dWireframe
350
30
  3
Basic
350
2E
  3
Brighten
350
35
  3
ColorChange
350
39
  3
Conceptual
350
32
  3
Dim
350
34
  3
EdgeColorOff
350
3C
  3
Facepattern
350
38
  3
Flat
350
2A
  3
FlatWithEdges
350
2B
  3
Gouraud
350
2C
  3
GouraudWithEdges
350
2D
  3
Hidden
350
2629
  3
JitterOff
350
3A
  3
Linepattern
350
37
  3
OverhangOff
350
3B
  3
Realistic
350
33
  3
Shaded
350
262E
  3
Shaded with edges
350
262D
  3
Shades of Gray
350
262A
  3
Sketchy
350
262B
  3
Thicken
350
36
  3
Wireframe
350
2628
  3
X-Ray
350
262C
  0
XRECORD
  5
7887
102
{ACAD_REACTORS
330
C
102
}
330
C
100
AcDbXrecord
280
     1
 90
        1
330
6F
330
4C0C
  0
DICTIONARY
  5
261F
102
{ACAD_REACTORS
330
C
102
}
330
C
100
AcDbDictionary
281
     1
  3
CANNOSCALE
350
2623
  3
CMLEADERSTYLE
350
2621
  3
CTABLESTYLE
350
2620
  3
CVIEWDETAILSTYLE
350
5A42
  3
CVIEWSECTIONSTYLE
350
5A43
  3
LAYEREVAL
350
2625
  3
LAYERNOTIFY
350
2626
  3
LIGHTINGUNITS
350
2624
  3
MSLTSCALE
350
2622
  0
DICTIONARY
  5
25F8
102
{ACAD_REACTORS
330
25F7
102
}
330
25F7
100
AcDbDictionary
281
     1
  0
XRECORD
  5
25EE
102
{ACAD_REACTORS
330
25ED
102
}
330
25ED
100
AcDbXrecord
280
     1
290
     1
  0
SORTENTSTABLE
  5
279B
102
{ACAD_REACTORS
330
279A
102
}
330
279A
100
AcDbSortentsTable
330
76
331
1F2
  5
13E6
331
201
  5
13ED
331
210
  5
13F4
331
21F
  5
13FB
331
22E
  5
1402
331
23D
  5
1409
331
246
  5
1410
331
24F
  5
1417
331
257
  5
141E
331
25F
  5
1425
331
2AD
  5
142C
331
2B4
  5
1433
331
2BB
  5
143A
331
2C2
  5
1441
331
2C9
  5
1448
331
2D0
  5
144F
331
2D7
  5
1456
331
2DE
  5
145D
331
2E5
  5
1464
331
2EC
  5
146B
331
2F3
  5
1472
331
2FA
  5
1479
331
301
  5
14CB
331
308
  5
14D2
331
30F
  5
14D9
331
316
  5
14E0
331
31D
  5
14E7
331
324
  5
14EE
331
32B
  5
14F5
331
332
  5
14FC
331
339
  5
1503
331
340
  5
150A
331
347
  5
1511
331
399
  5
1518
331
3A0
  5
151F
331
3A7
  5
1526
331
3AE
  5
152D
331
3B5
  5
1534
331
3BC
  5
153B
331
3C3
  5
1542
331
3CA
  5
1549
331
3D1
  5
1550
331
3D8
  5
1557
331
3DF
  5
155E
331
3E6
  5
1565
331
3ED
  5
156C
331
3F4
  5
1573
331
3FB
  5
157A
331
402
  5
1581
331
409
  5
1588
331
410
  5
158F
331
417
  5
1596
331
41E
  5
159D
331
425
  5
15A4
331
42C
  5
15AB
331
433
  5
15B2
331
43A
  5
15B9
331
441
  5
15C0
331
448
  5
15C7
331
44F
  5
15CE
331
456
  5
15D5
331
45D
  5
15DC
331
464
  5
15E3
331
46B
  5
15EA
331
472
  5
15F1
331
479
  5
15F8
331
480
  5
15FF
331
487
  5
160E
331
48E
  5
161D
331
495
  5
162C
331
49C
  5
163B
331
4A3
  5
164A
331
4AA
  5
1659
331
4B1
  5
1668
331
4B8
  5
1677
331
4BF
  5
1686
331
4C6
  5
1695
331
4CD
  5
169C
331
4DC
  5
16A3
331
4EB
  5
16AA
331
4FA
  5
16B1
331
509
  5
16B8
331
518
  5
16BF
331
527
  5
16C6
331
536
  5
16CD
331
545
  5
16D4
331
554
  5
16DB
331
563
  5
16E2
331
56A
  5
16E9
331
571
  5
16F0
331
578
  5
16F7
331
57F
  5
16FE
331
586
  5
1705
331
58D
  5
170C
331
594
  5
1713
331
59B
  5
171A
331
5A2
  5
1721
331
5A9
  5
1728
331
5B0
  5
172F
331
5B7
  5
1736
331
5BE
  5
173D
331
5C5
  5
1744
331
B8A
  5
1CC9
331
B91
  5
1CD0
331
B98
  5
1CD7
331
B9F
  5
1CDE
331
BA6
  5
1CE5
331
BAD
  5
1CEC
331
BB4
  5
1CF3
331
BBB
  5
1CFA
331
BC2
  5
1D01
331
BC9
  5
1D08
331
BD0
  5
1D0F
331
BD7
  5
1D16
331
BDE
  5
1D1D
331
BE5
  5
1EC2
331
BEC
  5
1ED1
331
BF3
  5
1EE0
331
BFA
  5
1EEF
331
C01
  5
1EFE
331
C08
  5
1F0D
331
C0F
  5
1F16
331
C16
  5
1F1F
331
C1D
  5
1F27
331
C24
  5
1F2F
331
237C
  5
24DF
331
237D
  5
24E0
331
237E
  5
24E1
331
237F
  5
24E2
331
2380
  5
24E3
331
2381
  5
24E4
331
2382
  5
24E5
331
2383
  5
24E6
331
2384
  5
24E7
331
2385
  5
24E8
331
2386
  5
24E9
331
2387
  5
24EA
331
2388
  5
24EB
331
2389
  5
24EC
331
238A
  5
24ED
331
238B
  5
24EE
331
238C
  5
24EF
331
238D
  5
24F0
331
238E
  5
24F1
331
238F
  5
24F2
331
2390
  5
24F3
331
2391
  5
24F4
331
2392
  5
24F5
331
2393
  5
24F6
331
2394
  5
24F7
331
2395
  5
24F8
331
2396
  5
24F9
331
2397
  5
24FA
331
2398
  5
24FB
331
2399
  5
24FC
331
239A
  5
24FD
331
239B
  5
24FE
331
239C
  5
24FF
331
239D
  5
2500
331
239E
  5
2501
331
239F
  5
2502
331
23A0
  5
2503
331
23A1
  5
2504
331
23A2
  5
2505
331
23A3
  5
2506
331
23A4
  5
2507
331
23A5
  5
2508
331
23A6
  5
2509
331
23A7
  5
250A
331
23A8
  5
250B
331
23A9
  5
250C
331
23AA
  5
250D
331
23AB
  5
250E
331
23AC
  5
250F
331
23AD
  5
2510
331
23AE
  5
2511
331
23AF
  5
2512
331
23B0
  5
2513
331
23B1
  5
2514
331
23B2
  5
2515
331
23B3
  5
2516
331
23B4
  5
2517
331
23B5
  5
2518
331
23B6
  5
2519
331
23B7
  5
251A
331
23B8
  5
251B
331
23B9
  5
251C
331
23BA
  5
251D
331
23BB
  5
251E
331
23BC
  5
251F
331
23BD
  5
2520
331
23BE
  5
2521
331
23BF
  5
2522
331
23C0
  5
2523
331
23C1
  5
2524
331
23C2
  5
2525
331
23C3
  5
2526
331
23C4
  5
2527
331
23C5
  5
2528
331
23C6
  5
2529
331
23C7
  5
252A
331
23C8
  5
252B
331
23C9
  5
252C
331
23CA
  5
252D
331
23CB
  5
252E
331
23CC
  5
252F
331
23CD
  5
2530
331
23CE
  5
2531
331
23CF
  5
2532
331
23D0
  5
2533
331
23D1
  5
2534
331
23D2
  5
2535
331
23D3
  5
2536
331
23D4
  5
2537
331
23D5
  5
2538
331
23D6
  5
2539
331
23D7
  5
253A
331
23D8
  5
253B
331
23D9
  5
253C
331
23DA
  5
253D
331
23DB
  5
253E
331
23DC
  5
253F
331
23DD
  5
2540
331
23DE
  5
2541
331
23DF
  5
2542
331
23E0
  5
2543
331
23E1
  5
2544
331
23E2
  5
2545
331
23E3
  5
2546
331
2603
  5
2796
331
2637
  5
1F2
331
2638
  5
201
331
2639
  5
210
331
263A
  5
21F
331
263B
  5
22E
331
263C
  5
23D
331
263D
  5
246
331
263E
  5
24F
331
263F
  5
257
331
2640
  5
25F
331
2641
  5
2AD
331
2642
  5
2B4
331
2643
  5
2BB
331
2644
  5
2C2
331
2645
  5
2C9
331
2646
  5
2D0
331
2647
  5
2D7
331
2648
  5
2DE
331
2649
  5
2E5
331
264A
  5
2EC
331
264B
  5
2F3
331
264C
  5
2FA
331
264D
  5
301
331
264E
  5
308
331
264F
  5
30F
331
2650
  5
316
331
2651
  5
31D
331
2652
  5
324
331
2653
  5
32B
331
2654
  5
332
331
2655
  5
339
331
2656
  5
340
331
2657
  5
347
331
2658
  5
399
331
2659
  5
3A0
331
265A
  5
3A7
331
265B
  5
3AE
331
265C
  5
3B5
331
265D
  5
3BC
331
265E
  5
3C3
331
265F
  5
3CA
331
2660
  5
3D1
331
2661
  5
3D8
331
2662
  5
3DF
331
2663
  5
3E6
331
2664
  5
3ED
331
2665
  5
3F4
331
2666
  5
3FB
331
2667
  5
402
331
2668
  5
409
331
2669
  5
410
331
266A
  5
417
331
266B
  5
41E
331
266C
  5
425
331
266D
  5
42C
331
266E
  5
433
331
266F
  5
43A
331
2670
  5
441
331
2671
  5
448
331
2672
  5
44F
331
2673
  5
456
331
2674
  5
45D
331
2675
  5
464
331
2676
  5
46B
331
2677
  5
472
331
2678
  5
479
331
2679
  5
480
331
267A
  5
487
331
267B
  5
48E
331
267C
  5
495
331
267D
  5
49C
331
267E
  5
4A3
331
267F
  5
4AA
331
2680
  5
4B1
331
2681
  5
4B8
331
2682
  5
4BF
331
2683
  5
4C6
331
2684
  5
4CD
331
2685
  5
4DC
331
2686
  5
4EB
331
2687
  5
4FA
331
2688
  5
509
331
2689
  5
518
331
268A
  5
527
331
268B
  5
536
331
268C
  5
545
331
268D
  5
554
331
268E
  5
563
331
268F
  5
56A
331
2690
  5
571
331
2691
  5
578
331
2692
  5
57F
331
2693
  5
586
331
2694
  5
58D
331
2695
  5
594
331
2696
  5
59B
331
2697
  5
5A2
331
2698
  5
5A9
331
2699
  5
5B0
331
269A
  5
5B7
331
269B
  5
5BE
331
269C
  5
5C5
331
269D
  5
5CC
331
269E
  5
771
331
269F
  5
780
331
26A0
  5
78F
331
26A1
  5
79E
331
26A2
  5
7AD
331
26A3
  5
7BC
331
26A4
  5
7C5
331
26A5
  5
7CE
331
26A6
  5
7D6
331
26A7
  5
7DE
331
26A8
  5
82C
331
26A9
  5
833
331
26AA
  5
83A
331
26AB
  5
841
331
26AC
  5
848
331
26AD
  5
84F
331
26AE
  5
856
331
26AF
  5
85D
331
26B0
  5
864
331
26B1
  5
86B
331
26B2
  5
872
331
26B3
  5
879
331
26B4
  5
880
331
26B5
  5
887
331
26B6
  5
88E
331
26B7
  5
895
331
26B8
  5
89C
331
26B9
  5
8A3
331
26BA
  5
8AA
331
26BB
  5
8B1
331
26BC
  5
8B8
331
26BD
  5
8BF
331
26BE
  5
8C6
331
26BF
  5
918
331
26C0
  5
91F
331
26C1
  5
926
331
26C2
  5
92D
331
26C3
  5
934
331
26C4
  5
93B
331
26C5
  5
942
331
26C6
  5
949
331
26C7
  5
950
331
26C8
  5
957
331
26C9
  5
95E
331
26CA
  5
965
331
26CB
  5
96C
331
26CC
  5
973
331
26CD
  5
97A
331
26CE
  5
981
331
26CF
  5
988
331
26D0
  5
98F
331
26D1
  5
996
331
26D2
  5
99D
331
26D3
  5
9A4
331
26D4
  5
9AB
331
26D5
  5
9B2
331
26D6
  5
9B9
331
26D7
  5
9C0
331
26D8
  5
9C7
331
26D9
  5
9CE
331
26DA
  5
9D5
331
26DB
  5
9DC
331
26DC
  5
9E3
331
26DD
  5
9EA
331
26DE
  5
9F1
331
26DF
  5
9F8
331
26E0
  5
9FF
331
26E1
  5
A06
331
26E2
  5
A0D
331
26E3
  5
A14
331
26E4
  5
A1B
331
26E5
  5
A22
331
26E6
  5
A29
331
26E7
  5
A30
331
26E9
  5
A3E
331
26EA
  5
A45
331
26EB
  5
A4C
331
26EC
  5
A5B
331
26ED
  5
A6A
331
26EE
  5
A79
331
26EF
  5
A88
331
26F0
  5
A97
331
26F1
  5
AA6
331
26F2
  5
AB5
331
26F3
  5
AC4
331
26F5
  5
AE2
331
26F6
  5
AE9
331
26F7
  5
AF0
331
26F8
  5
AF7
331
26F9
  5
AFE
331
26FA
  5
B05
331
26FB
  5
B0C
331
26FC
  5
B13
331
26FD
  5
B1A
331
26FE
  5
B21
331
26FF
  5
B28
331
2700
  5
B2F
331
2701
  5
B36
331
2702
  5
B3D
331
2703
  5
B44
331
2704
  5
B4B
331
2705
  5
B52
331
2706
  5
B59
331
2707
  5
B60
331
2708
  5
B67
331
2709
  5
B6E
331
270A
  5
B75
331
270B
  5
B7C
331
270C
  5
B83
331
270D
  5
B8A
331
270E
  5
B91
331
270F
  5
B98
331
2710
  5
B9F
331
2711
  5
BA6
331
2712
  5
BAD
331
2713
  5
BB4
331
2714
  5
BBB
331
2715
  5
BC2
331
2716
  5
BC9
331
2717
  5
BD0
331
2718
  5
BD7
331
2719
  5
BDE
331
271A
  5
BE5
331
271B
  5
BEC
331
271C
  5
BF3
331
271D
  5
BFA
331
271E
  5
C01
331
2724
  5
C2B
331
2725
  5
C32
331
2726
  5
C39
331
2727
  5
C40
331
2728
  5
DA5
331
2729
  5
DB4
331
272A
  5
DC3
331
272B
  5
DD2
331
272C
  5
DE1
331
272D
  5
DF0
331
272E
  5
DF9
331
272F
  5
E02
331
2730
  5
E0A
331
2731
  5
E12
331
2732
  5
E60
331
2733
  5
E67
331
2734
  5
E6E
331
2735
  5
E75
331
2736
  5
E7C
331
2737
  5
E83
331
2738
  5
E8A
331
2739
  5
E91
331
273A
  5
E98
331
273B
  5
E9F
331
273D
  5
EAD
331
273E
  5
EB4
331
273F
  5
EBB
331
2740
  5
EC2
331
2741
  5
EC9
331
2742
  5
ED0
331
2743
  5
ED7
331
2744
  5
EDE
331
2745
  5
EE5
331
2746
  5
EEC
331
2747
  5
EF3
331
2748
  5
EFA
331
2749
  5
F4C
331
274A
  5
F53
331
274B
  5
F5A
331
274C
  5
F61
331
274D
  5
F68
331
274E
  5
F6F
331
274F
  5
F76
331
2750
  5
F7D
331
2751
  5
F84
331
2752
  5
F8B
331
2753
  5
F92
331
2754
  5
F99
331
2755
  5
FA0
331
2756
  5
FA7
331
2757
  5
FAE
331
2758
  5
FB5
331
2759
  5
FBC
331
275A
  5
FC3
331
275B
  5
FCA
331
275C
  5
FD1
331
275D
  5
FD8
331
275E
  5
FDF
331
275F
  5
FE6
331
2760
  5
FED
331
2761
  5
FF4
331
2762
  5
FFB
331
2763
  5
1002
331
2764
  5
1009
331
2765
  5
1010
331
2766
  5
1017
331
2767
  5
101E
331
2768
  5
1025
331
2769
  5
102C
331
276A
  5
1033
331
276B
  5
103A
331
276C
  5
1041
331
276D
  5
1048
331
276E
  5
104F
331
276F
  5
1056
331
2770
  5
105D
331
2771
  5
1064
331
2772
  5
106B
331
2773
  5
1072
331
2774
  5
1079
331
2775
  5
1080
331
2776
  5
108F
331
2777
  5
109E
331
2778
  5
10AD
331
2779
  5
10BC
331
277A
  5
10CB
331
277B
  5
10DA
331
277C
  5
10E9
331
277D
  5
10F8
331
277E
  5
1107
331
277F
  5
1116
331
2780
  5
111D
331
2781
  5
1124
331
2782
  5
112B
331
2783
  5
1132
331
2784
  5
1139
331
2785
  5
1140
331
2786
  5
1147
331
2787
  5
114E
331
2788
  5
1155
331
2789
  5
115C
331
278A
  5
1163
331
278B
  5
116A
331
278C
  5
1171
331
278D
  5
1178
331
278E
  5
117F
331
278F
  5
1324
331
2790
  5
1333
331
2791
  5
1342
331
2792
  5
1351
331
2793
  5
1360
331
2794
  5
136F
331
2795
  5
1378
331
2796
  5
1381
331
2797
  5
1389
331
2798
  5
1391
331
2799
  5
13DF
  0
DICTIONARY
  5
4C15
102
{ACAD_REACTORS
330
4C06
102
}
330
4C06
100
AcDbDictionary
281
     1
  3
ACAD_ASSOCNETWORK
350
4C16
  0
SORTENTSTABLE
  5
4C07
102
{ACAD_REACTORS
330
4C06
102
}
330
4C06
100
AcDbSortentsTable
330
4BFA
  0
ACDB_DYNAMICBLOCKPURGEPREVENTER_VERSION
  5
5A48
102
{ACAD_REACTORS
330
4C06
102
}
330
4C06
100
AcDbDynamicBlockPurgePreventer
 70
     1
  0
SORTENTSTABLE
  5
4D17
102
{ACAD_REACTORS
330
4D16
102
}
330
4D16
100
AcDbSortentsTable
330
4CEC
  0
ACDBASSOCNETWORK
  5
27A7
102
{ACAD_REACTORS
330
27A6
102
}
330
27A6
100
AcDbAssocAction
 90
        2
 90
        0
330
0
360
0
 90
        0
 90
        0
 90
        0
 90
        0
 90
        0
 90
        0
 90
        0
100
AcDbAssocNetwork
 90
        0
 90
       10
 90
        1
330
4C16
 90
        0
  0
ACDBDETAILVIEWSTYLE
  5
2632
102
{ACAD_REACTORS
330
2631
102
}
330
2631
100
AcDbModelDocViewStyle
 70
     0
  3
Imperial24
290
     0
300
Imperial24
 90
        0
100
AcDbDetailViewStyle
 70
     0
 71
     0
 90
        3
 71
     1
340
60
 62
   256
 40
0.24
340
0
 62
   256
 40
0.24
300

 40
0.36
280
     3
 71
     2
340
67
 90
       25
 62
   256
 71
     3
340
60
 62
   256
 40
0.24
 90
        1
 40
0.75
 90
        1
300
%<\AcVar ViewType \f "%tc1">% %<\AcVar ViewDetailId>%\PSCALE %<\AcVar ViewScale \f "%sn">%
 71
     4
340
67
 90
       25
 62
   256
340
67
 90
       25
 62
   256
280
     0
  0
LAYOUT
  5
75
102
{ACAD_REACTORS
330
6C
102
}
330
6C
100
AcDbPlotSettings
  1

  2
\\winprint\kyo-c201
  4

  6

 40
0.0
 41
0.0
 42
0.0
 43
0.0
 44
0.0
 45
0.0
 46
0.0
 47
0.0
 48
0.0
 49
0.0
140
0.0
141
0.0
142
1.0
143
1.0
 70
   688
 72
     0
 73
     0
 74
     5
  7

 75
    16
147
1.0
 76
     0
 77
     2
 78
   300
148
0.0
149
0.0
100
AcDbLayout
  1
Layout1
 70
     1
 71
     1
 10
0.0
 20
0.0
 11
12.0
 21
9.0
 12
0.0
 22
0.0
 32
0.0
 14
1.000000000000000E+20
 24
1.000000000000000E+20
 34
1.000000000000000E+20
 15
-1.000000000000000E+20
 25
-1.000000000000000E+20
 35
-1.000000000000000E+20
146
0.0
 13
0.0
 23
0.0
 33
0.0
 16
1.0
 26
0.0
 36
0.0
 17
0.0
 27
1.0
 37
0.0
 76
     0
330
72
  0
LAYOUT
  5
79
102
{ACAD_XDICTIONARY
360
260E
102
}
102
{ACAD_REACTORS
330
6C
102
}
330
6C
100
AcDbPlotSettings
  1

  2
\\winprint\kyo-c201
  4

  6

 40
0.0
 41
0.0
 42
0.0
 43
0.0
 44
0.0
 45
0.0
 46
0.0
 47
0.0
 48
0.0
 49
0.0
140
0.0
141
0.0
142
1.0
143
1.0
 70
  1712
 72
     0
 73
     0
 74
     0
  7

 75
     0
147
1.0
 76
     0
 77
     2
 78
   300
148
0.0
149
0.0
100
AcDbLayout
  1
Model
 70
     1
 71
     0
 10
0.0
 20
0.0
 11
12.0
 21
9.0
 12
0.0
 22
0.0
 32
0.0
 14
0.0
 24
0.0
 34
0.0
 15
0.0
 25
0.0
 35
0.0
146
0.0
 13
0.0
 23
0.0
 33
0.0
 16
1.0
 26
0.0
 36
0.0
 17
0.0
 27
1.0
 37
0.0
 76
     0
330
76
331
7A
  0
MATERIAL
  5
19
102
{ACAD_XDICTIONARY
360
1A
102
}
102
{ACAD_REACTORS
330
10
102
}
330
10
100
AcDbMaterial
  1
ByBlock
 72
     0
 43
0.0208333333333333
 43
0.0
 43
0.0
 43
0.0
 43
0.0
 43
0.0208333333333333
 43
0.0
 43
0.0
 43
0.0
 43
0.0
 43
1.0
 43
0.0
 43
0.0
 43
0.0
 43
0.0
 43
1.0
 77
     0
 47
0.0208333333333333
 47
0.0
 47
0.0
 47
0.0
 47
0.0
 47
0.0208333333333333
 47
0.0
 47
0.0
 47
0.0
 47
0.0
 47
1.0
 47
0.0
 47
0.0
 47
0.0
 47
0.0
 47
1.0
171
     0
 49
0.0208333333333333
 49
0.0
 49
0.0
 49
0.0
 49
0.0
 49
0.0208333333333333
 49
0.0
 49
0.0
 49
0.0
 49
0.0
 49
1.0
 49
0.0
 49
0.0
 49
0.0
 49
0.0
 49
1.0
175
     0
142
0.0208333333333333
142
0.0
142
0.0
142
0.0
142
0.0
142
0.0208333333333333
142
0.0
142
0.0
142
0.0
142
0.0
142
1.0
142
0.0
142
0.0
142
0.0
142
0.0
142
1.0
179
     0
144
0.0208333333333333
144
0.0
144
0.0
144
0.0
144
0.0
144
0.0208333333333333
144
0.0
144
0.0
144
0.0
144
0.0
144
1.0
144
0.0
144
0.0
144
0.0
144
0.0
144
1.0
147
0.0208333333333333
147
0.0
147
0.0
147
0.0
147
0.0
147
0.0208333333333333
147
0.0
147
0.0
147
0.0
147
0.0
147
1.0
147
0.0
147
0.0
147
0.0
147
0.0
147
1.0
  0
MATERIAL
  5
11
102
{ACAD_XDICTIONARY
360
12
102
}
102
{ACAD_REACTORS
330
10
102
}
330
10
100
AcDbMaterial
  1
ByLayer
 72
     0
 43
0.0208333333333333
 43
0.0
 43
0.0
 43
0.0
 43
0.0
 43
0.0208333333333333
 43
0.0
 43
0.0
 43
0.0
 43
0.0
 43
1.0
 43
0.0
 43
0.0
 43
0.0
 43
0.0
 43
1.0
 77
     0
 47
0.0208333333333333
 47
0.0
 47
0.0
 47
0.0
 47
0.0
 47
0.0208333333333333
 47
0.0
 47
0.0
 47
0.0
 47
0.0
 47
1.0
 47
0.0
 47
0.0
 47
0.0
 47
0.0
 47
1.0
171
     0
 49
0.0208333333333333
 49
0.0
 49
0.0
 49
0.0
 49
0.0
 49
0.0208333333333333
 49
0.0
 49
0.0
 49
0.0
 49
0.0
 49
1.0
 49
0.0
 49
0.0
 49
0.0
 49
0.0
 49
1.0
175
     0
142
0.0208333333333333
142
0.0
142
0.0
142
0.0
142
0.0
142
0.0208333333333333
142
0.0
142
0.0
142
0.0
142
0.0
142
1.0
142
0.0
142
0.0
142
0.0
142
0.0
142
1.0
179
     0
144
0.0208333333333333
144
0.0
144
0.0
144
0.0
144
0.0
144
0.0208333333333333
144
0.0
144
0.0
144
0.0
144
0.0
144
1.0
144
0.0
144
0.0
144
0.0
144
0.0
144
1.0
147
0.0208333333333333
147
0.0
147
0.0
147
0.0
147
0.0
147
0.0208333333333333
147
0.0
147
0.0
147
0.0
147
0.0
147
1.0
147
0.0
147
0.0
147
0.0
147
0.0
147
1.0
  0
MATERIAL
  5
21
102
{ACAD_XDICTIONARY
360
22
102
}
102
{ACAD_REACTORS
330
10
102
}
330
10
100
AcDbMaterial
  1
Global
 72
     0
 43
0.0208333333333333
 43
0.0
 43
0.0
 43
0.0
 43
0.0
 43
0.0208333333333333
 43
0.0
 43
0.0
 43
0.0
 43
0.0
 43
1.0
 43
0.0
 43
0.0
 43
0.0
 43
0.0
 43
1.0
 77
     0
 47
0.0208333333333333
 47
0.0
 47
0.0
 47
0.0
 47
0.0
 47
0.0208333333333333
 47
0.0
 47
0.0
 47
0.0
 47
0.0
 47
1.0
 47
0.0
 47
0.0
 47
0.0
 47
0.0
 47
1.0
171
     0
 49
0.0208333333333333
 49
0.0
 49
0.0
 49
0.0
 49
0.0
 49
0.0208333333333333
 49
0.0
 49
0.0
 49
0.0
 49
0.0
 49
1.0
 49
0.0
 49
0.0
 49
0.0
 49
0.0
 49
1.0
175
     0
142
0.0208333333333333
142
0.0
142
0.0
142
0.0
142
0.0
142
0.0208333333333333
142
0.0
142
0.0
142
0.0
142
0.0
142
1.0
142
0.0
142
0.0
142
0.0
142
0.0
142
1.0
179
     0
144
0.0208333333333333
144
0.0
144
0.0
144
0.0
144
0.0
144
0.0208333333333333
144
0.0
144
0.0
144
0.0
144
0.0
144
1.0
144
0.0
144
0.0
144
0.0
144
0.0
144
1.0
147
0.0208333333333333
147
0.0
147
0.0
147
0.0
147
0.0
147
0.0208333333333333
147
0.0
147
0.0
147
0.0
147
0.0
147
1.0
147
0.0
147
0.0
147
0.0
147
0.0
147
1.0
  0
MLEADERSTYLE
  5
71
102
{ACAD_REACTORS
330
70
102
}
330
70
100
AcDbMLeaderStyle
179
     2
170
     2
171
     1
172
     0
 90
        2
 40
0.0
 41
0.0
173
     1
 91
-1056964608
340
65
 92
       -2
290
     1
 42
0.09
291
     1
 43
0.36
  3
Standard
 44
0.18
300

342
60
174
     1
178
     6
175
     1
176
     0
 93
-1056964608
 45
0.18
292
     0
297
     0
 46
0.18
 94
-1056964608
 47
1.0
 49
1.0
140
1.0
293
     1
141
0.0
294
     1
177
     0
142
1.0
295
     0
296
     0
143
0.125
271
     0
272
     9
273
     9
298
     0
  0
MLINESTYLE
  5
6A
102
{ACAD_REACTORS
330
69
102
}
330
69
100
AcDbMlineStyle
  2
STANDARD
 70
     0
  3

 62
   256
 51
90.0
 52
90.0
 71
     2
 49
0.5
 62
   256
  6
BYLAYER
 49
-0.5
 62
   256
  6
BYLAYER
  0
ACDBPLACEHOLDER
  5
F
102
{ACAD_REACTORS
330
E
102
}
330
E
  0
SCALE
  5
3E
102
{ACAD_REACTORS
330
3D
102
}
330
3D
100
AcDbScale
 70
     0
300
1:1
140
1.0
141
1.0
290
     1
  0
SCALE
  5
3F
102
{ACAD_REACTORS
330
3D
102
}
330
3D
100
AcDbScale
 70
     0
300
1:2
140
1.0
141
2.0
290
     0
  0
SCALE
  5
40
102
{ACAD_REACTORS
330
3D
102
}
330
3D
100
AcDbScale
 70
     0
300
1:4
140
1.0
141
4.0
290
     0
  0
SCALE
  5
41
102
{ACAD_REACTORS
330
3D
102
}
330
3D
100
AcDbScale
 70
     0
300
1:5
140
1.0
141
5.0
290
     0
  0
SCALE
  5
42
102
{ACAD_REACTORS
330
3D
102
}
330
3D
100
AcDbScale
 70
     0
300
1:8
140
1.0
141
8.0
290
     0
  0
SCALE
  5
43
102
{ACAD_REACTORS
330
3D
102
}
330
3D
100
AcDbScale
 70
     0
300
1:10
140
1.0
141
10.0
290
     0
  0
SCALE
  5
44
102
{ACAD_REACTORS
330
3D
102
}
330
3D
100
AcDbScale
 70
     0
300
1:16
140
1.0
141
16.0
290
     0
  0
SCALE
  5
45
102
{ACAD_REACTORS
330
3D
102
}
330
3D
100
AcDbScale
 70
     0
300
1:20
140
1.0
141
20.0
290
     0
  0
SCALE
  5
46
102
{ACAD_REACTORS
330
3D
102
}
330
3D
100
AcDbScale
 70
     0
300
1:30
140
1.0
141
30.0
290
     0
  0
SCALE
  5
47
102
{ACAD_REACTORS
330
3D
102
}
330
3D
100
AcDbScale
 70
     0
300
1:40
140
1.0
141
40.0
290
     0
  0
SCALE
  5
48
102
{ACAD_REACTORS
330
3D
102
}
330
3D
100
AcDbScale
 70
     0
300
1:50
140
1.0
141
50.0
290
     0
  0
SCALE
  5
49
102
{ACAD_REACTORS
330
3D
102
}
330
3D
100
AcDbScale
 70
     0
300
1:100
140
1.0
141
100.0
290
     0
  0
SCALE
  5
4A
102
{ACAD_REACTORS
330
3D
102
}
330
3D
100
AcDbScale
 70
     0
300
2:1
140
2.0
141
1.0
290
     0
  0
SCALE
  5
4B
102
{ACAD_REACTORS
330
3D
102
}
330
3D
100
AcDbScale
 70
     0
300
4:1
140
4.0
141
1.0
290
     0
  0
SCALE
  5
4C
102
{ACAD_REACTORS
330
3D
102
}
330
3D
100
AcDbScale
 70
     0
300
8:1
140
8.0
141
1.0
290
     0
  0
SCALE
  5
4D
102
{ACAD_REACTORS
330
3D
102
}
330
3D
100
AcDbScale
 70
     0
300
10:1
140
10.0
141
1.0
290
     0
  0
SCALE
  5
4E
102
{ACAD_REACTORS
330
3D
102
}
330
3D
100
AcDbScale
 70
     0
300
100:1
140
100.0
141
1.0
290
     0
  0
SCALE
  5
4F
102
{ACAD_REACTORS
330
3D
102
}
330
3D
100
AcDbScale
 70
     0
300
1/128" = 1'-0"
140
0.0078125
141
12.0
290
     0
  0
SCALE
  5
50
102
{ACAD_REACTORS
330
3D
102
}
330
3D
100
AcDbScale
 70
     0
300
1/64" = 1'-0"
140
0.015625
141
12.0
290
     0
  0
SCALE
  5
51
102
{ACAD_REACTORS
330
3D
102
}
330
3D
100
AcDbScale
 70
     0
300
1/32" = 1'-0"
140
0.03125
141
12.0
290
     0
  0
SCALE
  5
52
102
{ACAD_REACTORS
330
3D
102
}
330
3D
100
AcDbScale
 70
     0
300
1/16" = 1'-0"
140
0.0625
141
12.0
290
     0
  0
SCALE
  5
53
102
{ACAD_REACTORS
330
3D
102
}
330
3D
100
AcDbScale
 70
     0
300
3/32" = 1'-0"
140
0.09375
141
12.0
290
     0
  0
SCALE
  5
54
102
{ACAD_REACTORS
330
3D
102
}
330
3D
100
AcDbScale
 70
     0
300
1/8" = 1'-0"
140
0.125
141
12.0
290
     0
  0
SCALE
  5
55
102
{ACAD_REACTORS
330
3D
102
}
330
3D
100
AcDbScale
 70
     0
300
3/16" = 1'-0"
140
0.1875
141
12.0
290
     0
  0
SCALE
  5
56
102
{ACAD_REACTORS
330
3D
102
}
330
3D
100
AcDbScale
 70
     0
300
1/4" = 1'-0"
140
0.25
141
12.0
290
     0
  0
SCALE
  5
57
102
{ACAD_REACTORS
330
3D
102
}
330
3D
100
AcDbScale
 70
     0
300
3/8" = 1'-0"
140
0.375
141
12.0
290
     0
  0
SCALE
  5
58
102
{ACAD_REACTORS
330
3D
102
}
330
3D
100
AcDbScale
 70
     0
300
1/2" = 1'-0"
140
0.5
141
12.0
290
     0
  0
SCALE
  5
59
102
{ACAD_REACTORS
330
3D
102
}
330
3D
100
AcDbScale
 70
     0
300
3/4" = 1'-0"
140
0.75
141
12.0
290
     0
  0
SCALE
  5
5A
102
{ACAD_REACTORS
330
3D
102
}
330
3D
100
AcDbScale
 70
     0
300
1" = 1'-0"
140
1.0
141
12.0
290
     0
  0
SCALE
  5
5B
102
{ACAD_REACTORS
330
3D
102
}
330
3D
100
AcDbScale
 70
     0
300
1-1/2" = 1'-0"
140
1.5
141
12.0
290
     0
  0
SCALE
  5
5C
102
{ACAD_REACTORS
330
3D
102
}
330
3D
100
AcDbScale
 70
     0
300
3" = 1'-0"
140
3.0
141
12.0
290
     0
  0
SCALE
  5
5D
102
{ACAD_REACTORS
330
3D
102
}
330
3D
100
AcDbScale
 70
     0
300
6" = 1'-0"
140
6.0
141
12.0
290
     0
  0
SCALE
  5
5E
102
{ACAD_REACTORS
330
3D
102
}
330
3D
100
AcDbScale
 70
     0
300
1'-0" = 1'-0"
140
12.0
141
12.0
290
     0
  0
ACDBSECTIONVIEWSTYLE
  5
2630
102
{ACAD_REACTORS
330
262F
102
}
330
262F
100
AcDbModelDocViewStyle
 70
     0
  3
Imperial24
290
     0
300
Imperial24
 90
        0
100
AcDbSectionViewStyle
 70
     0
 71
     0
 90
       78
 71
     1
340
60
 62
   256
 40
0.24
340
0
340
0
 62
   256
 40
0.24
300
I, O, Q, S, X, Z
 40
0.48
 90
        3
 40
0.18
 90
        1
 71
     2
340
67
 90
       25
 62
   256
340
67
 90
       50
 62
   256
 40
0.24
 40
0.0
 40
0.24
 71
     3
340
60
 62
   256
 40
0.24
 90
        1
 40
0.75
 90
        1
300
%<\AcVar ViewType \f "%tc1">% %<\AcVar ViewSectionStartId>%-%<\AcVar ViewSectionEndId>%\PSCALE %<\AcVar ViewScale \f "%sn">%
 71
     4
 62
   256
 62
   257
300
ANSI31
 40
1.0
 90
        0
290
     0
290
     0
 90
        6
 40
0.0
 40
1.570796326794896
 40
0.2617993877991494
 40
1.308996938995747
 40
-0.2617993877991494
 40
1.832595714594046
  0
TABLESTYLE
  5
6F
102
{ACAD_XDICTIONARY
360
7885
102
}
102
{ACAD_REACTORS
330
6E
102
}
330
6E
100
AcDbTableStyle
280
     0
  3
Standard
 70
     0
 71
     0
 40
0.06
 41
0.06
280
     0
281
     0
  7
Standard
140
0.18
170
     2
 62
     0
 63
     7
283
     0
 90
      512
 91
        0
  1

274
    -2
284
     1
 64
     0
275
    -2
285
     1
 65
     0
276
    -2
286
     1
 66
     0
277
    -2
287
     1
 67
     0
278
    -2
288
     1
 68
     0
279
    -2
289
     1
 69
     0
  7
Standard
140
0.25
170
     5
 62
     0
 63
     7
283
     0
 90
      512
 91
        0
  1

274
    -2
284
     1
 64
     0
275
    -2
285
     1
 65
     0
276
    -2
286
     1
 66
     0
277
    -2
287
     1
 67
     0
278
    -2
288
     1
 68
     0
279
    -2
289
     1
 69
     0
  7
Standard
140
0.18
170
     5
 62
     0
 63
     7
283
     0
 90
      512
 91
        0
  1

274
    -2
284
     1
 64
     0
275
    -2
285
     1
 65
     0
276
    -2
286
     1
 66
     0
277
    -2
287
     1
 67
     0
278
    -2
288
     1
 68
     0
279
    -2
289
     1
 69
     0
  0
VISUALSTYLE
  5
2F
102
{ACAD_REACTORS
330
29
102
}
330
29
100
AcDbVisualStyle
  2
2dWireframe
 70
     4
177
     3
291
     0
 70
    58
 90
        0
176
     1
 90
        2
176
     1
 90
        0
176
     1
 90
        0
176
     1
 40
0.6
176
     1
 40
30.0
176
     1
 62
     7
420
 16777215
176
     1
 90
        1
176
     1
 90
        4
176
     1
 62
     7
176
     1
 62
   257
176
     1
 90
        1
176
     1
 90
        1
176
     1
 40
1.0
176
     1
 90
        0
176
     1
 62
   257
176
     1
 40
1.0
176
     1
 90
        1
176
     1
 90
        6
176
     1
 90
        2
176
     1
 62
     7
176
     1
 90
        5
176
     1
 90
        0
176
     1
 90
        0
176
     1
290
     0
176
     1
 90
        1
176
     1
 40
0.0
176
     1
 90
        0
176
     1
290
     1
176
     1
290
     1
176
     1
290
     0
176
     1
290
     0
176
     1
290
     0
176
     1
290
     0
176
     1
290
     0
176
     1
290
     0
176
     1
290
     0
176
     1
 90
       50
176
     1
 40
0.0
176
     1
 40
1.0
176
     1
 90
        0
176
     1
 62
    18
420
        0
176
     1
 90
       50
176
     1
 90
        3
176
     1
 62
     5
420
      255
176
     1
290
     0
176
     1
 90
       50
176
     1
 90
       50
176
     1
 90
       50
176
     1
290
     0
176
     1
 90
       50
176
     1
 62
   256
176
     0
 40
1.0
176
     0
 90
        2
176
     1
  1
strokes_ogs.tif
176
     1
290
     0
176
     1
 40
1.0
176
     1
 40
1.0
176
     1
  0
VISUALSTYLE
  5
31
102
{ACAD_REACTORS
330
29
102
}
330
29
100
AcDbVisualStyle
  2
3D Hidden
 70
     6
177
     3
291
     0
 70
    58
 90
        1
176
     1
 90
        2
176
     1
 90
        2
176
     1
 90
        0
176
     1
 40
0.6
176
     1
 40
30.0
176
     1
 62
     7
420
 16777215
176
     1
 90
        2
176
     1
 90
        2
176
     1
 62
     7
176
     1
 62
   257
176
     1
 90
        2
176
     1
 90
        1
176
     1
 40
179.0
176
     1
 90
        0
176
     1
 62
   257
176
     1
 40
1.0
176
     1
 90
        1
176
     1
 90
        6
176
     1
 90
        2
176
     1
 62
     7
176
     1
 90
        3
176
     1
 90
        0
176
     1
 90
        0
176
     1
290
     0
176
     1
 90
        1
176
     1
 40
0.0
176
     1
 90
        0
176
     1
290
     0
176
     1
290
     1
176
     1
290
     1
176
     1
290
     0
176
     1
290
     0
176
     1
290
     0
176
     1
290
     0
176
     1
290
     0
176
     1
290
     0
176
     1
 90
       50
176
     1
 40
0.0
176
     1
 40
1.0
176
     1
 90
        0
176
     1
 62
    18
420
        0
176
     1
 90
       50
176
     1
 90
        3
176
     1
 62
     5
420
      255
176
     1
290
     0
176
     1
 90
       50
176
     1
 90
       50
176
     1
 90
       50
176
     1
290
     0
176
     1
 90
       50
176
     1
 62
   256
176
     0
 40
1.0
176
     0
 90
        2
176
     1
  1
strokes_ogs.tif
176
     1
290
     0
176
     1
 40
1.0
176
     1
 40
1.0
176
     1
  0
VISUALSTYLE
  5
30
102
{ACAD_REACTORS
330
29
102
}
330
29
100
AcDbVisualStyle
  2
3dWireframe
 70
     5
177
     3
291
     0
 70
    58
 90
        0
176
     1
 90
        2
176
     1
 90
        0
176
     1
 90
        0
176
     1
 40
0.6
176
     1
 40
30.0
176
     1
 62
     7
420
 16777215
176
     1
 90
        1
176
     1
 90
        4
176
     1
 62
     7
176
     1
 62
   257
176
     1
 90
        1
176
     1
 90
        1
176
     1
 40
1.0
176
     1
 90
        0
176
     1
 62
   257
176
     1
 40
1.0
176
     1
 90
        1
176
     1
 90
        6
176
     1
 90
        2
176
     1
 62
     7
176
     1
 90
        5
176
     1
 90
        0
176
     1
 90
        0
176
     1
290
     0
176
     1
 90
        1
176
     1
 40
0.0
176
     1
 90
        0
176
     1
290
     0
176
     1
290
     1
176
     1
290
     1
176
     1
290
     0
176
     1
290
     0
176
     1
290
     0
176
     1
290
     0
176
     1
290
     0
176
     1
290
     0
176
     1
 90
       50
176
     1
 40
0.0
176
     1
 40
1.0
176
     1
 90
        0
176
     1
 62
    18
420
        0
176
     1
 90
       50
176
     1
 90
        3
176
     1
 62
     5
420
      255
176
     1
290
     0
176
     1
 90
       50
176
     1
 90
       50
176
     1
 90
       50
176
     1
290
     0
176
     1
 90
       50
176
     1
 62
   256
176
     0
 40
1.0
176
     0
 90
        2
176
     1
  1
strokes_ogs.tif
176
     1
290
     0
176
     1
 40
1.0
176
     1
 40
1.0
176
     1
  0
VISUALSTYLE
  5
2E
102
{ACAD_REACTORS
330
29
102
}
330
29
100
AcDbVisualStyle
  2
Basic
 70
     7
177
     3
291
     1
 70
    58
 90
        1
176
     1
 90
        0
176
     1
 90
        1
176
     1
 90
        0
176
     1
 40
0.6
176
     1
 40
30.0
176
     1
 62
     7
420
 16777215
176
     1
 90
        0
176
     1
 90
        4
176
     1
 62
     7
176
     1
 62
   257
176
     1
 90
        1
176
     1
 90
        1
176
     1
 40
1.0
176
     1
 90
        8
176
     1
 62
     7
176
     1
 40
1.0
176
     1
 90
        1
176
     1
 90
        6
176
     1
 90
        2
176
     1
 62
     7
176
     1
 90
        5
176
     1
 90
        0
176
     1
 90
        0
176
     1
290
     0
176
     1
 90
        1
176
     1
 40
0.0
176
     1
 90
        0
176
     1
290
     0
176
     1
290
     1
176
     1
290
     1
176
     1
290
     0
176
     1
290
     0
176
     1
290
     0
176
     1
290
     0
176
     1
290
     0
176
     1
290
     0
176
     1
 90
       50
176
     1
 40
0.0
176
     1
 40
1.0
176
     1
 90
        0
176
     1
 62
    18
420
        0
176
     1
 90
       50
176
     1
 90
        3
176
     1
 62
     5
420
      255
176
     1
290
     0
176
     1
 90
       50
176
     1
 90
       50
176
     1
 90
       50
176
     1
290
     0
176
     1
 90
       50
176
     1
 62
   256
176
     0
 40
1.0
176
     0
 90
        2
176
     1
  1
strokes_ogs.tif
176
     1
290
     0
176
     1
 40
1.0
176
     1
 40
1.0
176
     1
  0
VISUALSTYLE
  5
35
102
{ACAD_REACTORS
330
29
102
}
330
29
100
AcDbVisualStyle
  2
Brighten
 70
    12
177
     3
291
     1
 70
    58
 90
        2
176
     1
 90
        2
176
     1
 90
        0
176
     1
 90
        0
176
     1
 40
0.6
176
     1
 40
30.0
176
     1
 62
     7
420
 16777215
176
     1
 90
        1
176
     1
 90
        4
176
     1
 62
     7
176
     1
 62
   257
176
     1
 90
        1
176
     1
 90
        1
176
     1
 40
1.0
176
     1
 90
        8
176
     1
 62
     7
176
     1
 40
1.0
176
     1
 90
        1
176
     1
 90
        6
176
     1
 90
        2
176
     1
 62
     7
176
     1
 90
        5
176
     1
 90
        0
176
     1
 90
        0
176
     1
290
     0
176
     1
 90
        1
176
     1
 40
50.0
176
     1
 90
        0
176
     1
290
     0
176
     1
290
     1
176
     1
290
     1
176
     1
290
     0
176
     1
290
     0
176
     1
290
     0
176
     1
290
     0
176
     1
290
     0
176
     1
290
     0
176
     1
 90
       50
176
     1
 40
0.0
176
     1
 40
1.0
176
     1
 90
        0
176
     1
 62
    18
420
        0
176
     1
 90
       50
176
     1
 90
        3
176
     1
 62
     5
420
      255
176
     1
290
     0
176
     1
 90
       50
176
     1
 90
       50
176
     1
 90
       50
176
     1
290
     0
176
     1
 90
       50
176
     1
 62
   256
176
     0
 40
1.0
176
     0
 90
        2
176
     1
  1
strokes_ogs.tif
176
     1
290
     0
176
     1
 40
1.0
176
     1
 40
1.0
176
     1
  0
VISUALSTYLE
  5
39
102
{ACAD_REACTORS
330
29
102
}
330
29
100
AcDbVisualStyle
  2
ColorChange
 70
    16
177
     3
291
     1
 70
    58
 90
        2
176
     1
 90
        2
176
     1
 90
        3
176
     1
 90
        0
176
     1
 40
0.6
176
     1
 40
30.0
176
     1
 62
     8
420
  8421504
176
     1
 90
        1
176
     1
 90
        4
176
     1
 62
     7
176
     1
 62
   257
176
     1
 90
        1
176
     1
 90
        1
176
     1
 40
1.0
176
     1
 90
        8
176
     1
 62
     8
420
  8421504
176
     1
 40
1.0
176
     1
 90
        1
176
     1
 90
        6
176
     1
 90
        2
176
     1
 62
     7
176
     1
 90
        5
176
     1
 90
        0
176
     1
 90
        0
176
     1
290
     0
176
     1
 90
        1
176
     1
 40
0.0
176
     1
 90
        0
176
     1
290
     0
176
     1
290
     1
176
     1
290
     1
176
     1
290
     0
176
     1
290
     0
176
     1
290
     0
176
     1
290
     0
176
     1
290
     0
176
     1
290
     0
176
     1
 90
       50
176
     1
 40
0.0
176
     1
 40
1.0
176
     1
 90
        0
176
     1
 62
    18
420
        0
176
     1
 90
       50
176
     1
 90
        3
176
     1
 62
     5
420
      255
176
     1
290
     0
176
     1
 90
       50
176
     1
 90
       50
176
     1
 90
       50
176
     1
290
     0
176
     1
 90
       50
176
     1
 62
   256
176
     0
 40
1.0
176
     0
 90
        2
176
     1
  1
strokes_ogs.tif
176
     1
290
     0
176
     1
 40
1.0
176
     1
 40
1.0
176
     1
  0
VISUALSTYLE
  5
32
102
{ACAD_REACTORS
330
29
102
}
330
29
100
AcDbVisualStyle
  2
Conceptual
 70
     9
177
     3
291
     0
 70
    58
 90
        3
176
     1
 90
        2
176
     1
 90
        0
176
     1
 90
        0
176
     1
 40
0.6
176
     1
 40
30.0
176
     1
 62
     7
420
 16777215
176
     1
 90
        2
176
     1
 90
        2
176
     1
 62
     7
176
     1
 62
   257
176
     1
 90
        1
176
     1
 90
        1
176
     1
 40
179.0
176
     1
 90
        8
176
     1
 62
     7
176
     1
 40
1.0
176
     1
 90
        1
176
     1
 90
        6
176
     1
 90
        2
176
     1
 62
     7
176
     1
 90
        3
176
     1
 90
        0
176
     1
 90
        0
176
     1
290
     0
176
     1
 90
        1
176
     1
 40
0.0
176
     1
 90
        0
176
     1
290
     0
176
     1
290
     1
176
     1
290
     1
176
     1
290
     0
176
     1
290
     0
176
     1
290
     0
176
     1
290
     0
176
     1
290
     0
176
     1
290
     0
176
     1
 90
       50
176
     1
 40
0.0
176
     1
 40
1.0
176
     1
 90
        0
176
     1
 62
    18
420
        0
176
     1
 90
       50
176
     1
 90
        3
176
     1
 62
     5
420
      255
176
     1
290
     0
176
     1
 90
       50
176
     1
 90
       50
176
     1
 90
       50
176
     1
290
     0
176
     1
 90
       50
176
     1
 62
   256
176
     0
 40
1.0
176
     0
 90
        2
176
     1
  1
strokes_ogs.tif
176
     1
290
     0
176
     1
 40
1.0
176
     1
 40
1.0
176
     1
  0
VISUALSTYLE
  5
34
102
{ACAD_REACTORS
330
29
102
}
330
29
100
AcDbVisualStyle
  2
Dim
 70
    11
177
     3
291
     1
 70
    58
 90
        2
176
     1
 90
        2
176
     1
 90
        0
176
     1
 90
        0
176
     1
 40
0.6
176
     1
 40
30.0
176
     1
 62
     7
420
 16777215
176
     1
 90
        1
176
     1
 90
        4
176
     1
 62
     7
176
     1
 62
   257
176
     1
 90
        1
176
     1
 90
        1
176
     1
 40
1.0
176
     1
 90
        8
176
     1
 62
     7
176
     1
 40
1.0
176
     1
 90
        1
176
     1
 90
        6
176
     1
 90
        2
176
     1
 62
     7
176
     1
 90
        5
176
     1
 90
        0
176
     1
 90
        0
176
     1
290
     0
176
     1
 90
        1
176
     1
 40
-50.0
176
     1
 90
        0
176
     1
290
     0
176
     1
290
     1
176
     1
290
     1
176
     1
290
     0
176
     1
290
     0
176
     1
290
     0
176
     1
290
     0
176
     1
290
     0
176
     1
290
     0
176
     1
 90
       50
176
     1
 40
0.0
176
     1
 40
1.0
176
     1
 90
        0
176
     1
 62
    18
420
        0
176
     1
 90
       50
176
     1
 90
        3
176
     1
 62
     5
420
      255
176
     1
290
     0
176
     1
 90
       50
176
     1
 90
       50
176
     1
 90
       50
176
     1
290
     0
176
     1
 90
       50
176
     1
 62
   256
176
     0
 40
1.0
176
     0
 90
        2
176
     1
  1
strokes_ogs.tif
176
     1
290
     0
176
     1
 40
1.0
176
     1
 40
1.0
176
     1
  0
VISUALSTYLE
  5
3C
102
{ACAD_REACTORS
330
29
102
}
330
29
100
AcDbVisualStyle
  2
EdgeColorOff
 70
    22
177
     3
291
     1
 70
    58
 90
        2
176
     0
 90
        2
176
     0
 90
        0
176
     0
 90
        0
176
     0
 40
0.6
176
     0
 40
30.0
176
     0
 62
     7
420
 16777215
176
     0
 90
        1
176
     0
 90
        4
176
     0
 62
     7
176
     0
 62
   257
176
     0
 90
        1
176
     0
 90
        1
176
     0
 40
1.0
176
     0
 90
        8
176
     2
 62
     7
176
     0
 40
1.0
176
     0
 90
        1
176
     0
 90
        6
176
     0
 90
        2
176
     0
 62
     7
176
     0
 90
        5
176
     0
 90
        0
176
     0
 90
        0
176
     0
290
     0
176
     0
 90
        1
176
     0
 40
0.0
176
     0
 90
        0
176
     0
290
     0
176
     1
290
     1
176
     1
290
     1
176
     1
290
     0
176
     1
290
     0
176
     1
290
     0
176
     1
290
     0
176
     1
290
     0
176
     1
290
     0
176
     1
 90
       50
176
     1
 40
0.0
176
     1
 40
1.0
176
     1
 90
        0
176
     1
 62
    18
420
        0
176
     1
 90
       50
176
     1
 90
        3
176
     1
 62
     5
420
      255
176
     1
290
     0
176
     1
 90
       50
176
     1
 90
       50
176
     1
 90
       50
176
     1
290
     0
176
     1
 90
       50
176
     1
 62
   256
176
     0
 40
1.0
176
     0
 90
        2
176
     1
  1
strokes_ogs.tif
176
     1
290
     0
176
     1
 40
1.0
176
     1
 40
1.0
176
     1
  0
VISUALSTYLE
  5
38
102
{ACAD_REACTORS
330
29
102
}
330
29
100
AcDbVisualStyle
  2
Facepattern
 70
    15
177
     3
291
     1
 70
    58
 90
        2
176
     1
 90
        2
176
     1
 90
        0
176
     1
 90
        0
176
     1
 40
0.6
176
     1
 40
30.0
176
     1
 62
     7
420
 16777215
176
     1
 90
        1
176
     1
 90
        4
176
     1
 62
     7
176
     1
 62
   257
176
     1
 90
        1
176
     1
 90
        1
176
     1
 40
1.0
176
     1
 90
        8
176
     1
 62
     7
176
     1
 40
1.0
176
     1
 90
        1
176
     1
 90
        6
176
     1
 90
        2
176
     1
 62
     7
176
     1
 90
        5
176
     1
 90
        0
176
     1
 90
        0
176
     1
290
     0
176
     1
 90
        1
176
     1
 40
0.0
176
     1
 90
        0
176
     1
290
     0
176
     1
290
     1
176
     1
290
     1
176
     1
290
     0
176
     1
290
     0
176
     1
290
     0
176
     1
290
     0
176
     1
290
     0
176
     1
290
     0
176
     1
 90
       50
176
     1
 40
0.0
176
     1
 40
1.0
176
     1
 90
        0
176
     1
 62
    18
420
        0
176
     1
 90
       50
176
     1
 90
        3
176
     1
 62
     5
420
      255
176
     1
290
     0
176
     1
 90
       50
176
     1
 90
       50
176
     1
 90
       50
176
     1
290
     0
176
     1
 90
       50
176
     1
 62
   256
176
     0
 40
1.0
176
     0
 90
        2
176
     1
  1
strokes_ogs.tif
176
     1
290
     0
176
     1
 40
1.0
176
     1
 40
1.0
176
     1
  0
VISUALSTYLE
  5
2A
102
{ACAD_REACTORS
330
29
102
}
330
29
100
AcDbVisualStyle
  2
Flat
 70
     0
177
     3
291
     1
 70
    58
 90
        2
176
     1
 90
        1
176
     1
 90
        1
176
     1
 90
        2
176
     1
 40
0.6
176
     1
 40
30.0
176
     1
 62
     7
420
 16777215
176
     1
 90
        0
176
     1
 90
        4
176
     1
 62
     7
176
     1
 62
   257
176
     1
 90
        1
176
     1
 90
        1
176
     1
 40
1.0
176
     1
 90
        8
176
     1
 62
     7
176
     1
 40
1.0
176
     1
 90
        1
176
     1
 90
        6
176
     1
 90
        2
176
     1
 62
     7
176
     1
 90
        5
176
     1
 90
        0
176
     1
 90
        0
176
     1
290
     0
176
     1
 90
       13
176
     1
 40
0.0
176
     1
 90
        0
176
     1
290
     0
176
     1
290
     1
176
     1
290
     1
176
     1
290
     0
176
     1
290
     0
176
     1
290
     0
176
     1
290
     0
176
     1
290
     0
176
     1
290
     0
176
     1
 90
       50
176
     1
 40
0.0
176
     1
 40
1.0
176
     1
 90
        0
176
     1
 62
    18
420
        0
176
     1
 90
       50
176
     1
 90
        3
176
     1
 62
     5
420
      255
176
     1
290
     0
176
     1
 90
       50
176
     1
 90
       50
176
     1
 90
       50
176
     1
290
     0
176
     1
 90
       50
176
     1
 62
   256
176
     0
 40
1.0
176
     0
 90
        2
176
     1
  1
strokes_ogs.tif
176
     1
290
     0
176
     1
 40
1.0
176
     1
 40
1.0
176
     1
  0
VISUALSTYLE
  5
2B
102
{ACAD_REACTORS
330
29
102
}
330
29
100
AcDbVisualStyle
  2
FlatWithEdges
 70
     1
177
     3
291
     1
 70
    58
 90
        2
176
     1
 90
        1
176
     1
 90
        1
176
     1
 90
        2
176
     1
 40
0.6
176
     1
 40
30.0
176
     1
 62
     7
420
 16777215
176
     1
 90
        1
176
     1
 90
        4
176
     1
 62
     7
176
     1
 62
   257
176
     1
 90
        1
176
     1
 90
        1
176
     1
 40
1.0
176
     1
 90
        0
176
     1
 62
   257
176
     1
 40
1.0
176
     1
 90
        1
176
     1
 90
        6
176
     1
 90
        2
176
     1
 62
     7
176
     1
 90
        5
176
     1
 90
        0
176
     1
 90
        0
176
     1
290
     0
176
     1
 90
       13
176
     1
 40
0.0
176
     1
 90
        0
176
     1
290
     0
176
     1
290
     1
176
     1
290
     1
176
     1
290
     0
176
     1
290
     0
176
     1
290
     0
176
     1
290
     0
176
     1
290
     0
176
     1
290
     0
176
     1
 90
       50
176
     1
 40
0.0
176
     1
 40
1.0
176
     1
 90
        0
176
     1
 62
    18
420
        0
176
     1
 90
       50
176
     1
 90
        3
176
     1
 62
     5
420
      255
176
     1
290
     0
176
     1
 90
       50
176
     1
 90
       50
176
     1
 90
       50
176
     1
290
     0
176
     1
 90
       50
176
     1
 62
   256
176
     0
 40
1.0
176
     0
 90
        2
176
     1
  1
strokes_ogs.tif
176
     1
290
     0
176
     1
 40
1.0
176
     1
 40
1.0
176
     1
  0
VISUALSTYLE
  5
2C
102
{ACAD_REACTORS
330
29
102
}
330
29
100
AcDbVisualStyle
  2
Gouraud
 70
     2
177
     3
291
     1
 70
    58
 90
        2
176
     1
 90
        2
176
     1
 90
        1
176
     1
 90
        2
176
     1
 40
0.6
176
     1
 40
30.0
176
     1
 62
     7
420
 16777215
176
     1
 90
        0
176
     1
 90
        4
176
     1
 62
     7
176
     1
 62
   257
176
     1
 90
        1
176
     1
 90
        1
176
     1
 40
1.0
176
     1
 90
        0
176
     1
 62
     7
176
     1
 40
1.0
176
     1
 90
        1
176
     1
 90
        6
176
     1
 90
        2
176
     1
 62
     7
176
     1
 90
        5
176
     1
 90
        0
176
     1
 90
        0
176
     1
290
     0
176
     1
 90
       13
176
     1
 40
0.0
176
     1
 90
        0
176
     1
290
     0
176
     1
290
     1
176
     1
290
     1
176
     1
290
     0
176
     1
290
     0
176
     1
290
     0
176
     1
290
     0
176
     1
290
     0
176
     1
290
     0
176
     1
 90
       50
176
     1
 40
0.0
176
     1
 40
1.0
176
     1
 90
        0
176
     1
 62
    18
420
        0
176
     1
 90
       50
176
     1
 90
        3
176
     1
 62
     5
420
      255
176
     1
290
     0
176
     1
 90
       50
176
     1
 90
       50
176
     1
 90
       50
176
     1
290
     0
176
     1
 90
       50
176
     1
 62
   256
176
     0
 40
1.0
176
     0
 90
        2
176
     1
  1
strokes_ogs.tif
176
     1
290
     0
176
     1
 40
1.0
176
     1
 40
1.0
176
     1
  0
VISUALSTYLE
  5
2D
102
{ACAD_REACTORS
330
29
102
}
330
29
100
AcDbVisualStyle
  2
GouraudWithEdges
 70
     3
177
     3
291
     1
 70
    58
 90
        2
176
     1
 90
        2
176
     1
 90
        1
176
     1
 90
        2
176
     1
 40
0.6
176
     1
 40
30.0
176
     1
 62
     7
420
 16777215
176
     1
 90
        1
176
     1
 90
        4
176
     1
 62
     7
176
     1
 62
   257
176
     1
 90
        1
176
     1
 90
        1
176
     1
 40
1.0
176
     1
 90
        0
176
     1
 62
   257
176
     1
 40
1.0
176
     1
 90
        1
176
     1
 90
        6
176
     1
 90
        2
176
     1
 62
     7
176
     1
 90
        5
176
     1
 90
        0
176
     1
 90
        0
176
     1
290
     0
176
     1
 90
       13
176
     1
 40
0.0
176
     1
 90
        0
176
     1
290
     0
176
     1
290
     1
176
     1
290
     1
176
     1
290
     0
176
     1
290
     0
176
     1
290
     0
176
     1
290
     0
176
     1
290
     0
176
     1
290
     0
176
     1
 90
       50
176
     1
 40
0.0
176
     1
 40
1.0
176
     1
 90
        0
176
     1
 62
    18
420
        0
176
     1
 90
       50
176
     1
 90
        3
176
     1
 62
     5
420
      255
176
     1
290
     0
176
     1
 90
       50
176
     1
 90
       50
176
     1
 90
       50
176
     1
290
     0
176
     1
 90
       50
176
     1
 62
   256
176
     0
 40
1.0
176
     0
 90
        2
176
     1
  1
strokes_ogs.tif
176
     1
290
     0
176
     1
 40
1.0
176
     1
 40
1.0
176
     1
  0
VISUALSTYLE
  5
2629
102
{ACAD_REACTORS
330
29
102
}
330
29
100
AcDbVisualStyle
  2
Hidden
 70
     6
177
     3
291
     0
 70
    58
 90
        1
176
     1
 90
        2
176
     1
 90
        2
176
     1
 90
        0
176
     1
 40
0.6
176
     1
 40
30.0
176
     1
 62
     7
420
 16777215
176
     1
 90
        2
176
     1
 90
        2
176
     1
 62
     7
176
     1
 62
   257
176
     1
 90
        2
176
     1
 90
        1
176
     1
 40
40.0
176
     1
 90
        0
176
     1
 62
   257
176
     1
 40
1.0
176
     1
 90
        1
176
     1
 90
        6
176
     1
 90
        2
176
     1
 62
     7
176
     1
 90
        3
176
     1
 90
        0
176
     1
 90
        0
176
     1
290
     0
176
     1
 90
        1
176
     1
 40
0.0
176
     1
 90
        0
176
     1
290
     0
176
     1
290
     1
176
     1
290
     1
176
     1
290
     0
176
     1
290
     0
176
     1
290
     0
176
     1
290
     0
176
     1
290
     0
176
     1
290
     0
176
     1
 90
       50
176
     1
 40
0.0
176
     1
 40
1.0
176
     1
 90
        0
176
     1
 62
    18
420
        0
176
     1
 90
       50
176
     1
 90
        3
176
     1
 62
     5
420
      255
176
     1
290
     0
176
     1
 90
       50
176
     1
 90
       50
176
     1
 90
       50
176
     1
290
     0
176
     1
 90
       50
176
     1
 62
   256
176
     0
 40
1.0
176
     0
 90
        2
176
     1
  1
strokes_ogs.tif
176
     1
290
     0
176
     1
 40
1.0
176
     1
 40
1.0
176
     1
  0
VISUALSTYLE
  5
3A
102
{ACAD_REACTORS
330
29
102
}
330
29
100
AcDbVisualStyle
  2
JitterOff
 70
    20
177
     3
291
     1
 70
    58
 90
        2
176
     0
 90
        2
176
     0
 90
        0
176
     0
 90
        0
176
     0
 40
0.6
176
     0
 40
30.0
176
     0
 62
     7
420
 16777215
176
     0
 90
        1
176
     0
 90
        4
176
     0
 62
     7
176
     0
 62
   257
176
     0
 90
        1
176
     0
 90
        1
176
     0
 40
1.0
176
     0
 90
       10
176
     2
 62
     7
176
     0
 40
1.0
176
     0
 90
        1
176
     0
 90
        6
176
     0
 90
        2
176
     0
 62
     7
176
     0
 90
        5
176
     0
 90
        0
176
     0
 90
        0
176
     0
290
     0
176
     0
 90
        1
176
     0
 40
0.0
176
     0
 90
        0
176
     0
290
     0
176
     1
290
     1
176
     1
290
     1
176
     1
290
     0
176
     1
290
     0
176
     1
290
     0
176
     1
290
     0
176
     1
290
     0
176
     1
290
     0
176
     1
 90
       50
176
     1
 40
0.0
176
     1
 40
1.0
176
     1
 90
        0
176
     1
 62
    18
420
        0
176
     1
 90
       50
176
     1
 90
        3
176
     1
 62
     5
420
      255
176
     1
290
     0
176
     1
 90
       50
176
     1
 90
       50
176
     1
 90
       50
176
     1
290
     0
176
     1
 90
       50
176
     1
 62
   256
176
     0
 40
1.0
176
     0
 90
        2
176
     1
  1
strokes_ogs.tif
176
     1
290
     0
176
     1
 40
1.0
176
     1
 40
1.0
176
     1
  0
VISUALSTYLE
  5
37
102
{ACAD_REACTORS
330
29
102
}
330
29
100
AcDbVisualStyle
  2
Linepattern
 70
    14
177
     3
291
     1
 70
    58
 90
        2
176
     1
 90
        2
176
     1
 90
        0
176
     1
 90
        0
176
     1
 40
0.6
176
     1
 40
30.0
176
     1
 62
     7
420
 16777215
176
     1
 90
        1
176
     1
 90
        4
176
     1
 62
     7
176
     1
 62
   257
176
     1
 90
        7
176
     1
 90
        7
176
     1
 40
1.0
176
     1
 90
        8
176
     1
 62
     7
176
     1
 40
1.0
176
     1
 90
        1
176
     1
 90
        6
176
     1
 90
        2
176
     1
 62
     7
176
     1
 90
        5
176
     1
 90
        0
176
     1
 90
        0
176
     1
290
     0
176
     1
 90
        1
176
     1
 40
0.0
176
     1
 90
        0
176
     1
290
     0
176
     1
290
     1
176
     1
290
     1
176
     1
290
     0
176
     1
290
     0
176
     1
290
     0
176
     1
290
     0
176
     1
290
     0
176
     1
290
     0
176
     1
 90
       50
176
     1
 40
0.0
176
     1
 40
1.0
176
     1
 90
        0
176
     1
 62
    18
420
        0
176
     1
 90
       50
176
     1
 90
        3
176
     1
 62
     5
420
      255
176
     1
290
     0
176
     1
 90
       50
176
     1
 90
       50
176
     1
 90
       50
176
     1
290
     0
176
     1
 90
       50
176
     1
 62
   256
176
     0
 40
1.0
176
     0
 90
        2
176
     1
  1
strokes_ogs.tif
176
     1
290
     0
176
     1
 40
1.0
176
     1
 40
1.0
176
     1
  0
VISUALSTYLE
  5
3B
102
{ACAD_REACTORS
330
29
102
}
330
29
100
AcDbVisualStyle
  2
OverhangOff
 70
    21
177
     3
291
     1
 70
    58
 90
        2
176
     0
 90
        2
176
     0
 90
        0
176
     0
 90
        0
176
     0
 40
0.6
176
     0
 40
30.0
176
     0
 62
     7
420
 16777215
176
     0
 90
        1
176
     0
 90
        4
176
     0
 62
     7
176
     0
 62
   257
176
     0
 90
        1
176
     0
 90
        1
176
     0
 40
1.0
176
     0
 90
        9
176
     2
 62
     7
176
     0
 40
1.0
176
     0
 90
        1
176
     0
 90
        6
176
     0
 90
        2
176
     0
 62
     7
176
     0
 90
        5
176
     0
 90
        0
176
     0
 90
        0
176
     0
290
     0
176
     0
 90
        1
176
     0
 40
0.0
176
     0
 90
        0
176
     0
290
     0
176
     1
290
     1
176
     1
290
     1
176
     1
290
     0
176
     1
290
     0
176
     1
290
     0
176
     1
290
     0
176
     1
290
     0
176
     1
290
     0
176
     1
 90
       50
176
     1
 40
0.0
176
     1
 40
1.0
176
     1
 90
        0
176
     1
 62
    18
420
        0
176
     1
 90
       50
176
     1
 90
        3
176
     1
 62
     5
420
      255
176
     1
290
     0
176
     1
 90
       50
176
     1
 90
       50
176
     1
 90
       50
176
     1
290
     0
176
     1
 90
       50
176
     1
 62
   256
176
     0
 40
1.0
176
     0
 90
        2
176
     1
  1
strokes_ogs.tif
176
     1
290
     0
176
     1
 40
1.0
176
     1
 40
1.0
176
     1
  0
VISUALSTYLE
  5
33
102
{ACAD_REACTORS
330
29
102
}
330
29
100
AcDbVisualStyle
  2
Realistic
 70
     8
177
     3
291
     0
 70
    58
 90
        2
176
     1
 90
        2
176
     1
 90
        0
176
     1
 90
        0
176
     1
 40
0.6
176
     1
 40
30.0
176
     1
 62
     7
420
 16777215
176
     1
 90
        1
176
     1
 90
        0
176
     1
 62
     7
176
     1
 62
   257
176
     1
 90
        1
176
     1
 90
        1
176
     1
 40
1.0
176
     1
 90
        8
176
     1
 62
     8
420
  7895160
176
     1
 40
1.0
176
     1
 90
        1
176
     1
 90
        6
176
     1
 90
        2
176
     1
 62
     7
176
     1
 90
        5
176
     1
 90
        0
176
     1
 90
        0
176
     1
290
     0
176
     1
 90
       13
176
     1
 40
0.0
176
     1
 90
        0
176
     1
290
     0
176
     1
290
     1
176
     1
290
     1
176
     1
290
     0
176
     1
290
     0
176
     1
290
     0
176
     1
290
     0
176
     1
290
     0
176
     1
290
     0
176
     1
 90
       50
176
     1
 40
0.0
176
     1
 40
1.0
176
     1
 90
        0
176
     1
 62
    18
420
        0
176
     1
 90
       50
176
     1
 90
        3
176
     1
 62
     5
420
      255
176
     1
290
     0
176
     1
 90
       50
176
     1
 90
       50
176
     1
 90
       50
176
     1
290
     0
176
     1
 90
       50
176
     1
 62
   256
176
     0
 40
1.0
176
     0
 90
        2
176
     1
  1
strokes_ogs.tif
176
     1
290
     0
176
     1
 40
1.0
176
     1
 40
1.0
176
     1
  0
VISUALSTYLE
  5
262E
102
{ACAD_REACTORS
330
29
102
}
330
29
100
AcDbVisualStyle
  2
Shaded
 70
    27
177
     3
291
     0
 70
    58
 90
        2
176
     1
 90
        2
176
     1
 90
        1
176
     1
 90
        2
176
     1
 40
0.6
176
     1
 40
30.0
176
     1
 62
     7
420
 16777215
176
     1
 90
        0
176
     1
 90
        4
176
     1
 62
     7
176
     1
 62
   257
176
     1
 90
        1
176
     1
 90
        1
176
     1
 40
1.0
176
     1
 90
        8
176
     1
 62
   257
176
     1
 40
1.0
176
     1
 90
        1
176
     1
 90
        6
176
     1
 90
        2
176
     1
 62
     8
420
  7895160
176
     1
 90
        3
176
     1
 90
        0
176
     1
 90
        0
176
     1
290
     0
176
     1
 90
        5
176
     1
 40
0.0
176
     1
 90
        0
176
     1
290
     0
176
     1
290
     1
176
     1
290
     1
176
     1
290
     0
176
     1
290
     0
176
     1
290
     0
176
     1
290
     0
176
     1
290
     0
176
     1
290
     0
176
     1
 90
       50
176
     1
 40
0.0
176
     1
 40
1.0
176
     1
 90
        0
176
     1
 62
    18
420
        0
176
     1
 90
       50
176
     1
 90
        3
176
     1
 62
     5
420
      255
176
     1
290
     0
176
     1
 90
       50
176
     1
 90
       50
176
     1
 90
       50
176
     1
290
     0
176
     1
 90
       50
176
     1
 62
   256
176
     0
 40
1.0
176
     0
 90
        2
176
     1
  1
strokes_ogs.tif
176
     1
290
     0
176
     1
 40
1.0
176
     1
 40
1.0
176
     1
  0
VISUALSTYLE
  5
262D
102
{ACAD_REACTORS
330
29
102
}
330
29
100
AcDbVisualStyle
  2
Shaded with edges
 70
    26
177
     3
291
     0
 70
    58
 90
        2
176
     1
 90
        2
176
     1
 90
        1
176
     1
 90
        2
176
     1
 40
0.6
176
     1
 40
30.0
176
     1
 62
     7
420
 16777215
176
     1
 90
        1
176
     1
 90
        2
176
     1
 62
     7
176
     1
 62
   257
176
     1
 90
        2
176
     1
 90
        1
176
     1
 40
1.0
176
     1
 90
        8
176
     1
 62
   257
176
     1
 40
1.0
176
     1
 90
        1
176
     1
 90
        6
176
     1
 90
        2
176
     1
 62
     7
176
     1
 90
        3
176
     1
 90
        0
176
     1
 90
        0
176
     1
290
     0
176
     1
 90
        5
176
     1
 40
0.0
176
     1
 90
        0
176
     1
290
     0
176
     1
290
     1
176
     1
290
     1
176
     1
290
     0
176
     1
290
     0
176
     1
290
     0
176
     1
290
     0
176
     1
290
     0
176
     1
290
     0
176
     1
 90
       50
176
     1
 40
0.0
176
     1
 40
1.0
176
     1
 90
        0
176
     1
 62
    18
420
        0
176
     1
 90
       50
176
     1
 90
        3
176
     1
 62
     5
420
      255
176
     1
290
     0
176
     1
 90
       50
176
     1
 90
       50
176
     1
 90
       50
176
     1
290
     0
176
     1
 90
       50
176
     1
 62
   256
176
     0
 40
1.0
176
     0
 90
        2
176
     1
  1
strokes_ogs.tif
176
     1
290
     0
176
     1
 40
1.0
176
     1
 40
1.0
176
     1
  0
VISUALSTYLE
  5
262A
102
{ACAD_REACTORS
330
29
102
}
330
29
100
AcDbVisualStyle
  2
Shades of Gray
 70
    23
177
     3
291
     0
 70
    58
 90
        2
176
     1
 90
        2
176
     1
 90
        3
176
     1
 90
        0
176
     1
 40
0.6
176
     1
 40
30.0
176
     1
 62
     7
420
 16777215
176
     1
 90
        2
176
     1
 90
        2
176
     1
 62
     7
176
     1
 62
     7
176
     1
 90
        1
176
     1
 90
        1
176
     1
 40
40.0
176
     1
 90
        8
176
     1
 62
     7
176
     1
 40
1.0
176
     1
 90
        1
176
     1
 90
        6
176
     1
 90
        2
176
     1
 62
     7
176
     1
 90
        3
176
     1
 90
        0
176
     1
 90
        0
176
     1
290
     0
176
     1
 90
        1
176
     1
 40
0.0
176
     1
 90
        0
176
     1
290
     0
176
     1
290
     1
176
     1
290
     1
176
     1
290
     0
176
     1
290
     0
176
     1
290
     0
176
     1
290
     0
176
     1
290
     0
176
     1
290
     0
176
     1
 90
       50
176
     1
 40
0.0
176
     1
 40
1.0
176
     1
 90
        0
176
     1
 62
    18
420
        0
176
     1
 90
       50
176
     1
 90
        3
176
     1
 62
     5
420
      255
176
     1
290
     0
176
     1
 90
       50
176
     1
 90
       50
176
     1
 90
       50
176
     1
290
     0
176
     1
 90
       50
176
     1
 62
   256
176
     0
 40
1.0
176
     0
 90
        2
176
     1
  1
strokes_ogs.tif
176
     1
290
     0
176
     1
 40
1.0
176
     1
 40
1.0
176
     1
  0
VISUALSTYLE
  5
262B
102
{ACAD_REACTORS
330
29
102
}
330
29
100
AcDbVisualStyle
  2
Sketchy
 70
    24
177
     3
291
     0
 70
    58
 90
        1
176
     1
 90
        2
176
     1
 90
        2
176
     1
 90
        0
176
     1
 40
0.6
176
     1
 40
30.0
176
     1
 62
     7
420
 16777215
176
     1
 90
        2
176
     1
 90
        2
176
     1
 62
     7
176
     1
 62
     7
176
     1
 90
        1
176
     1
 90
        1
176
     1
 40
40.0
176
     1
 90
       11
176
     1
 62
     7
176
     1
 40
1.0
176
     1
 90
        1
176
     1
 90
        6
176
     1
 90
        2
176
     1
 62
     7
176
     1
 90
        6
176
     1
 90
        0
176
     1
 90
        0
176
     1
290
     0
176
     1
 90
        1
176
     1
 40
0.0
176
     1
 90
        0
176
     1
290
     0
176
     1
290
     1
176
     1
290
     1
176
     1
290
     0
176
     1
290
     0
176
     1
290
     0
176
     1
290
     0
176
     1
290
     0
176
     1
290
     0
176
     1
 90
       50
176
     1
 40
0.0
176
     1
 40
1.0
176
     1
 90
        0
176
     1
 62
    18
420
        0
176
     1
 90
       50
176
     1
 90
        3
176
     1
 62
     5
420
      255
176
     1
290
     0
176
     1
 90
       50
176
     1
 90
       50
176
     1
 90
       50
176
     1
290
     0
176
     1
 90
       50
176
     1
 62
   256
176
     0
 40
1.0
176
     0
 90
        2
176
     1
  1
strokes_ogs.tif
176
     1
290
     0
176
     1
 40
1.0
176
     1
 40
1.0
176
     1
  0
VISUALSTYLE
  5
36
102
{ACAD_REACTORS
330
29
102
}
330
29
100
AcDbVisualStyle
  2
Thicken
 70
    13
177
     3
291
     1
 70
    58
 90
        2
176
     1
 90
        2
176
     1
 90
        0
176
     1
 90
        0
176
     1
 40
0.6
176
     1
 40
30.0
176
     1
 62
     7
420
 16777215
176
     1
 90
        1
176
     1
 90
        4
176
     1
 62
     7
176
     1
 62
   257
176
     1
 90
        1
176
     1
 90
        1
176
     1
 40
1.0
176
     1
 90
       12
176
     1
 62
     7
176
     1
 40
1.0
176
     1
 90
        1
176
     1
 90
        6
176
     1
 90
        2
176
     1
 62
     7
176
     1
 90
        5
176
     1
 90
        0
176
     1
 90
        0
176
     1
290
     0
176
     1
 90
        1
176
     1
 40
0.0
176
     1
 90
        0
176
     1
290
     0
176
     1
290
     1
176
     1
290
     1
176
     1
290
     0
176
     1
290
     0
176
     1
290
     0
176
     1
290
     0
176
     1
290
     0
176
     1
290
     0
176
     1
 90
       50
176
     1
 40
0.0
176
     1
 40
1.0
176
     1
 90
        0
176
     1
 62
    18
420
        0
176
     1
 90
       50
176
     1
 90
        3
176
     1
 62
     5
420
      255
176
     1
290
     0
176
     1
 90
       50
176
     1
 90
       50
176
     1
 90
       50
176
     1
290
     0
176
     1
 90
       50
176
     1
 62
   256
176
     0
 40
1.0
176
     0
 90
        2
176
     1
  1
strokes_ogs.tif
176
     1
290
     0
176
     1
 40
1.0
176
     1
 40
1.0
176
     1
  0
VISUALSTYLE
  5
2628
102
{ACAD_REACTORS
330
29
102
}
330
29
100
AcDbVisualStyle
  2
Wireframe
 70
     5
177
     3
291
     0
 70
    58
 90
        0
176
     1
 90
        2
176
     1
 90
        0
176
     1
 90
        0
176
     1
 40
0.6
176
     1
 40
30.0
176
     1
 62
     7
420
 16777215
176
     1
 90
        1
176
     1
 90
        4
176
     1
 62
     7
176
     1
 62
   257
176
     1
 90
        1
176
     1
 90
        1
176
     1
 40
1.0
176
     1
 90
        0
176
     1
 62
   257
176
     1
 40
1.0
176
     1
 90
        1
176
     1
 90
        6
176
     1
 90
        2
176
     1
 62
     7
176
     1
 90
        3
176
     1
 90
        0
176
     1
 90
        0
176
     1
290
     0
176
     1
 90
        1
176
     1
 40
0.0
176
     1
 90
        0
176
     1
290
     0
176
     1
290
     1
176
     1
290
     1
176
     1
290
     0
176
     1
290
     0
176
     1
290
     0
176
     1
290
     0
176
     1
290
     0
176
     1
290
     0
176
     1
 90
       50
176
     1
 40
0.0
176
     1
 40
1.0
176
     1
 90
        0
176
     1
 62
    18
420
        0
176
     1
 90
       50
176
     1
 90
        3
176
     1
 62
     5
420
      255
176
     1
290
     0
176
     1
 90
       50
176
     1
 90
       50
176
     1
 90
       50
176
     1
290
     0
176
     1
 90
       50
176
     1
 62
   256
176
     0
 40
1.0
176
     0
 90
        2
176
     1
  1
strokes_ogs.tif
176
     1
290
     0
176
     1
 40
1.0
176
     1
 40
1.0
176
     1
  0
VISUALSTYLE
  5
262C
102
{ACAD_REACTORS
330
29
102
}
330
29
100
AcDbVisualStyle
  2
X-Ray
 70
    25
177
     3
291
     0
 70
    58
 90
        2
176
     1
 90
        2
176
     1
 90
        1
176
     1
 90
        1
176
     1
 40
0.5
176
     1
 40
30.0
176
     1
 62
     7
420
 16777215
176
     1
 90
        1
176
     1
 90
        0
176
     1
 62
     7
176
     1
 62
   257
176
     1
 90
        1
176
     1
 90
        1
176
     1
 40
1.0
176
     1
 90
        8
176
     1
 62
     7
176
     1
 40
1.0
176
     1
 90
        1
176
     1
 90
        6
176
     1
 90
        2
176
     1
 62
     7
176
     1
 90
        3
176
     1
 90
        0
176
     1
 90
        0
176
     1
290
     0
176
     1
 90
       13
176
     1
 40
0.0
176
     1
 90
        0
176
     1
290
     0
176
     1
290
     1
176
     1
290
     1
176
     1
290
     0
176
     1
290
     0
176
     1
290
     0
176
     1
290
     0
176
     1
290
     0
176
     1
290
     0
176
     1
 90
       50
176
     1
 40
0.0
176
     1
 40
1.0
176
     1
 90
        0
176
     1
 62
    18
420
        0
176
     1
 90
       50
176
     1
 90
        3
176
     1
 62
     5
420
      255
176
     1
290
     0
176
     1
 90
       50
176
     1
 90
       50
176
     1
 90
       50
176
     1
290
     0
176
     1
 90
       50
176
     1
 62
   256
176
     0
 40
1.0
176
     0
 90
        2
176
     1
  1
strokes_ogs.tif
176
     1
290
     0
176
     1
 40
1.0
176
     1
 40
1.0
176
     1
  0
DICTIONARYVAR
  5
2623
102
{ACAD_REACTORS
330
261F
102
}
330
261F
100
DictionaryVariables
280
     0
  1
1:1
  0
DICTIONARYVAR
  5
2621
102
{ACAD_REACTORS
330
261F
102
}
330
261F
100
DictionaryVariables
280
     0
  1
STANDARD
  0
DICTIONARYVAR
  5
2620
102
{ACAD_REACTORS
330
261F
102
}
330
261F
100
DictionaryVariables
280
     0
  1
STANDARD
  0
DICTIONARYVAR
  5
5A42
102
{ACAD_REACTORS
330
261F
102
}
330
261F
100
DictionaryVariables
280
     0
  1
Imperial24
  0
DICTIONARYVAR
  5
5A43
102
{ACAD_REACTORS
330
261F
102
}
330
261F
100
DictionaryVariables
280
     0
  1
Imperial24
  0
DICTIONARYVAR
  5
2625
102
{ACAD_REACTORS
330
261F
102
}
330
261F
100
DictionaryVariables
280
     0
  1
1
  0
DICTIONARYVAR
  5
2626
102
{ACAD_REACTORS
330
261F
102
}
330
261F
100
DictionaryVariables
280
     0
  1
15
  0
DICTIONARYVAR
  5
2624
102
{ACAD_REACTORS
330
261F
102
}
330
261F
100
DictionaryVariables
280
     0
  1
0
  0
DICTIONARYVAR
  5
2622
102
{ACAD_REACTORS
330
261F
102
}
330
261F
100
DictionaryVariables
280
     0
  1
0
  0
ACDBASSOCNETWORK
  5
4C16
102
{ACAD_REACTORS
330
4C15
102
}
330
4C15
100
AcDbAssocAction
 90
        2
 90
        0
330
27A7
360
0
 90
        8
 90
        0
 90
        0
 90
        0
 90
        0
 90
        0
 90
        0
100
AcDbAssocNetwork
 90
        0
 90
        1
 90
        1
360
4C0C
 90
        0
  0
DICTIONARY
  5
260E
330
79
100
AcDbDictionary
280
     1
281
     1
  0
DICTIONARY
  5
1A
330
19
100
AcDbDictionary
280
     1
281
     1
  3
BUMPTILE
360
1C
  3
DIFFUSETILE
360
1B
  3
OPACITYTILE
360
1F
  3
REFLECTIONTILE
360
1E
  3
REFRACTIONTILE
360
20
  3
SPECULARTILE
360
1D
  0
DICTIONARY
  5
12
330
11
100
AcDbDictionary
280
     1
281
     1
  3
BUMPTILE
360
14
  3
DIFFUSETILE
360
13
  3
OPACITYTILE
360
17
  3
REFLECTIONTILE
360
16
  3
REFRACTIONTILE
360
18
  3
SPECULARTILE
360
15
  0
DICTIONARY
  5
22
330
21
100
AcDbDictionary
280
     1
281
     1
  3
BUMPTILE
360
24
  3
DIFFUSETILE
360
23
  3
OPACITYTILE
360
27
  3
REFLECTIONTILE
360
26
  3
REFRACTIONTILE
360
28
  3
SPECULARTILE
360
25
  0
DICTIONARY
  5
7885
330
6F
100
AcDbDictionary
280
     1
281
     1
  3
ACAD_ROUNDTRIP_2008_TABLESTYLE_CELLSTYLEMAP
360
7886
  0
ACDBASSOC2DCONSTRAINTGROUP
  5
4C0C
330
4C16
100
AcDbAssocAction
 90
        2
 90
        0
330
4C16
360
0
 90
        1
 90
      118
 90
        0
 90
        0
 90
        0
 90
        0
 90
        0
 90
        2
 70
     0
 10
-37223.06440363161
 20
4321.452105635194
 30
0.0
 10
1.0
 20
0.0
 30
0.0
 10
0.0
 20
1.0
 30
0.0
360
0
 90
        8
360
4C0E
360
4C0F
360
4C10
360
4C11
360
4C13
360
4C12
360
4C0D
360
4C14
 90
      630
 90
        0
 90
        0
290
     0
 90
       46
  1
AcConstrainedBoundedLine
 90
      519
  1
AcConstrainedImplicitPoint
 90
      520
  1
AcPointCurveConstraint
 90
      521
  1
AcConstrainedImplicitPoint
 90
      522
  1
AcPointCurveConstraint
 90
      523
  1
AcConstrainedBoundedLine
 90
      524
  1
AcConstrainedImplicitPoint
 90
      525
  1
AcPointCurveConstraint
 90
      526
  1
AcConstrainedImplicitPoint
 90
      527
  1
AcPointCurveConstraint
 90
      528
  1
AcPointCoincidenceConstraint
 90
      529
  1
AcConstrainedBoundedLine
 90
      530
  1
AcConstrainedImplicitPoint
 90
      531
  1
AcPointCurveConstraint
 90
      532
  1
AcConstrainedImplicitPoint
 90
      533
  1
AcPointCurveConstraint
 90
      534
  1
AcPointCoincidenceConstraint
 90
      535
  1
AcConstrainedBoundedLine
 90
      536
  1
AcConstrainedImplicitPoint
 90
      537
  1
AcPointCurveConstraint
 90
      538
  1
AcConstrainedImplicitPoint
 90
      539
  1
AcPointCurveConstraint
 90
      540
  1
AcConstrainedBoundedLine
 90
      542
  1
AcConstrainedImplicitPoint
 90
      543
  1
AcPointCurveConstraint
 90
      544
  1
AcConstrainedImplicitPoint
 90
      545
  1
AcPointCurveConstraint
 90
      546
  1
AcPointCoincidenceConstraint
 90
      547
  1
AcPointCoincidenceConstraint
 90
      548
  1
AcConstrainedBoundedLine
 90
      549
  1
AcConstrainedImplicitPoint
 90
      550
  1
AcPointCurveConstraint
 90
      551
  1
AcConstrainedImplicitPoint
 90
      552
  1
AcPointCurveConstraint
 90
      553
  1
AcConstrainedBoundedLine
 90
      560
  1
AcConstrainedImplicitPoint
 90
      561
  1
AcPointCurveConstraint
 90
      562
  1
AcConstrainedImplicitPoint
 90
      563
  1
AcPointCurveConstraint
 90
      564
  1
AcPointCoincidenceConstraint
 90
      565
  1
AcConstrainedBoundedLine
 90
      566
  1
AcConstrainedImplicitPoint
 90
      567
  1
AcPointCurveConstraint
 90
      568
  1
AcConstrainedImplicitPoint
 90
      569
  1
AcPointCurveConstraint
 90
      570
  1
AcPointCoincidenceConstraint
 90
      571
 90
      519
 90
        2
 90
      521
 90
      523
 70
     1
330
4C13
 90
        0
 10
37425.81914366734
 20
-3893.120551775359
 30
0.0
 10
-0.5040131154892152
 20
-0.8636959994200879
 30
0.0
290
     0
 10
37425.81914366734
 20
-3893.120551775359
 30
0.0
 11
37365.82996685388
 21
-3995.920281444983
 31
0.0
 90
      520
 90
        2
 90
      521
 90
      529
 70
     1
330
0
 90
        0
280
     0
 90
       -1
 90
      519
 90
      521
 90
        2
 90
      520
 90
      519
 70
     0
 90
        0
290
     1
290
     1
 90
      522
 90
        2
 90
      523
 90
      535
 70
     1
330
0
 90
        0
280
     1
 90
       -1
 90
      519
 90
      523
 90
        2
 90
      522
 90
      519
 70
     0
 90
        0
290
     1
290
     1
 90
      524
 90
        2
 90
      526
 90
      528
 70
     1
330
4C12
 90
        0
 10
37575.79242626647
 20
-3847.600103150238
 30
0.0
 10
-0.9568932650072383
 20
-0.2904398033742836
 30
0.0
290
     0
 10
37575.79242626647
 20
-3847.600103150238
 30
0.0
 11
37425.81914366734
 21
-3893.120551775359
 31
0.0
 90
      525
 90
        1
 90
      526
 70
     1
330
0
 90
        0
280
     0
 90
       -1
 90
      524
 90
      526
 90
        2
 90
      525
 90
      524
 70
     0
 90
        0
290
     1
290
     1
 90
      527
 90
        2
 90
      528
 90
      529
 70
     1
330
0
 90
        0
280
     1
 90
       -1
 90
      524
 90
      528
 90
        2
 90
      527
 90
      524
 70
     0
 90
        0
290
     1
290
     1
 90
      529
 90
        2
 90
      520
 90
      527
 70
     0
 90
        0
290
     0
290
     1
 90
      530
 90
        2
 90
      532
 90
      534
 70
     1
330
4C0D
 90
        0
 10
37365.82996685388
 20
-3995.920281444983
 30
0.0
 10
-0.5040131154892152
 20
-0.8636959994200879
 30
0.0
290
     0
 10
37365.82996685388
 20
-3995.920281444983
 30
0.0
 11
37328.40866992598
 21
-4060.046835807217
 31
0.0
 90
      531
 90
        2
 90
      532
 90
      535
 70
     1
330
0
 90
        0
280
     0
 90
       -1
 90
      530
 90
      532
 90
        2
 90
      531
 90
      530
 70
     0
 90
        0
290
     1
290
     1
 90
      533
 90
        2
 90
      534
 90
      548
 70
     1
330
0
 90
        0
280
     1
 90
       -1
 90
      530
 90
      534
 90
        2
 90
      533
 90
      530
 70
     0
 90
        0
290
     1
290
     1
 90
      535
 90
        2
 90
      531
 90
      522
 70
     0
 90
        0
290
     0
290
     1
 90
      536
 90
        2
 90
      538
 90
      540
 70
     1
330
4C10
 90
        0
 10
37327.31478067751
 20
-4321.452105635212
 30
0.0
 10
0.0041846121603157
 20
0.9999912444718574
 30
0.0
290
     0
 10
37327.31478067751
 20
-4321.452105635212
 30
0.0
 11
37327.69125657723
 21
-4231.486156808727
 31
0.0
 90
      537
 90
        1
 90
      538
 70
     1
330
0
 90
        0
280
     0
 90
       -1
 90
      536
 90
      538
 90
        2
 90
      537
 90
      536
 70
     0
 90
        0
290
     1
290
     1
 90
      539
 90
        2
 90
      540
 90
      547
 70
     1
330
0
 90
        0
280
     1
 90
       -1
 90
      536
 90
      540
 90
        2
 90
      539
 90
      536
 70
     0
 90
        0
290
     1
290
     1
 90
      542
 90
        2
 90
      544
 90
      546
 70
     1
330
4C11
 90
        0
 10
37327.69125657723
 20
-4231.486156808727
 30
0.0
 10
0.0041846121603157
 20
0.9999912444718574
 30
0.0
290
     0
 10
37327.69125657723
 20
-4231.486156808727
 30
0.0
 11
37328.40866992598
 21
-4060.046835807217
 31
0.0
 90
      543
 90
        2
 90
      544
 90
      547
 70
     1
330
0
 90
        0
280
     0
 90
       -1
 90
      542
 90
      544
 90
        2
 90
      543
 90
      542
 70
     0
 90
        0
290
     1
290
     1
 90
      545
 90
        2
 90
      546
 90
      548
 70
     1
330
0
 90
        0
280
     1
 90
       -1
 90
      542
 90
      546
 90
        2
 90
      545
 90
      542
 70
     0
 90
        0
290
     1
290
     1
 90
      547
 90
        2
 90
      543
 90
      539
 70
     0
 90
        0
290
     0
290
     1
 90
      548
 90
        2
 90
      533
 90
      545
 70
     0
 90
        0
290
     0
290
     1
 90
      549
 90
        2
 90
      551
 90
      553
 70
     1
330
4C0F
 90
        0
 10
37696.37312724025
 20
-3747.600103150311
 30
0.0
 10
-1.0
 20
0.0
 30
0.0
290
     0
 10
37696.37312724025
 20
-3747.600103150311
 30
0.0
 11
37609.91840967082
 21
-3747.600103150311
 31
0.0
 90
      550
 90
        1
 90
      551
 70
     1
330
0
 90
        0
280
     0
 90
       -1
 90
      549
 90
      551
 90
        2
 90
      550
 90
      549
 70
     0
 90
        0
290
     1
290
     1
 90
      552
 90
        2
 90
      553
 90
      565
 70
     1
330
0
 90
        0
280
     1
 90
       -1
 90
      549
 90
      553
 90
        2
 90
      552
 90
      549
 70
     0
 90
        0
290
     1
290
     1
 90
      560
 90
        2
 90
      562
 90
      564
 70
     1
330
4C0E
 90
        0
 10
37609.91840967082
 20
-3747.600103150311
 30
0.0
 10
-0.9975895351963117
 20
-0.0693910604650228
 30
0.0
290
     0
 10
37609.91840967082
 20
-3747.600103150311
 30
0.0
 11
37453.38039456425
 21
-3758.488688573591
 31
0.0
 90
      561
 90
        2
 90
      562
 90
      565
 70
     1
330
0
 90
        0
280
     0
 90
       -1
 90
      560
 90
      562
 90
        2
 90
      561
 90
      560
 70
     0
 90
        0
290
     1
290
     1
 90
      563
 90
        2
 90
      564
 90
      571
 70
     1
330
0
 90
        0
280
     1
 90
       -1
 90
      560
 90
      564
 90
        2
 90
      563
 90
      560
 70
     0
 90
        0
290
     1
290
     1
 90
      565
 90
        2
 90
      561
 90
      552
 70
     0
 90
        0
290
     0
290
     1
 90
      566
 90
        2
 90
      568
 90
      570
 70
     1
330
4C14
 90
        0
 10
37453.38039456425
 20
-3758.488688573591
 30
0.0
 10
-0.8916336358815897
 20
-0.4527576165692154
 30
0.0
290
     0
 10
37453.38039456425
 20
-3758.488688573591
 30
0.0
 11
37312.47291820625
 21
-3830.039301499322
 31
0.0
 90
      567
 90
        2
 90
      568
 90
      571
 70
     1
330
0
 90
        0
280
     0
 90
       -1
 90
      566
 90
      568
 90
        2
 90
      567
 90
      566
 70
     0
 90
        0
290
     1
290
     1
 90
      569
 90
        1
 90
      570
 70
     1
330
0
 90
        0
280
     1
 90
       -1
 90
      566
 90
      570
 90
        2
 90
      569
 90
      566
 70
     0
 90
        0
290
     1
290
     1
 90
      571
 90
        2
 90
      567
 90
      563
 70
     0
 90
        0
290
     0
290
     1
  0
XRECORD
  5
1C
102
{ACAD_REACTORS
330
1A
102
}
330
1A
100
AcDbXrecord
280
     1
270
     1
271
     1
  0
XRECORD
  5
1B
102
{ACAD_REACTORS
330
1A
102
}
330
1A
100
AcDbXrecord
280
     1
270
     1
271
     1
  0
XRECORD
  5
1F
102
{ACAD_REACTORS
330
1A
102
}
330
1A
100
AcDbXrecord
280
     1
270
     1
271
     1
  0
XRECORD
  5
1E
102
{ACAD_REACTORS
330
1A
102
}
330
1A
100
AcDbXrecord
280
     1
270
     1
271
     1
  0
XRECORD
  5
20
102
{ACAD_REACTORS
330
1A
102
}
330
1A
100
AcDbXrecord
280
     1
270
     1
271
     1
  0
XRECORD
  5
1D
102
{ACAD_REACTORS
330
1A
102
}
330
1A
100
AcDbXrecord
280
     1
270
     1
271
     1
  0
XRECORD
  5
14
102
{ACAD_REACTORS
330
12
102
}
330
12
100
AcDbXrecord
280
     1
270
     1
271
     1
  0
XRECORD
  5
13
102
{ACAD_REACTORS
330
12
102
}
330
12
100
AcDbXrecord
280
     1
270
     1
271
     1
  0
XRECORD
  5
17
102
{ACAD_REACTORS
330
12
102
}
330
12
100
AcDbXrecord
280
     1
270
     1
271
     1
  0
XRECORD
  5
16
102
{ACAD_REACTORS
330
12
102
}
330
12
100
AcDbXrecord
280
     1
270
     1
271
     1
  0
XRECORD
  5
18
102
{ACAD_REACTORS
330
12
102
}
330
12
100
AcDbXrecord
280
     1
270
     1
271
     1
  0
XRECORD
  5
15
102
{ACAD_REACTORS
330
12
102
}
330
12
100
AcDbXrecord
280
     1
270
     1
271
     1
  0
XRECORD
  5
24
102
{ACAD_REACTORS
330
22
102
}
330
22
100
AcDbXrecord
280
     1
270
     1
271
     1
  0
XRECORD
  5
23
102
{ACAD_REACTORS
330
22
102
}
330
22
100
AcDbXrecord
280
     1
270
     1
271
     1
  0
XRECORD
  5
27
102
{ACAD_REACTORS
330
22
102
}
330
22
100
AcDbXrecord
280
     1
270
     1
271
     1
  0
XRECORD
  5
26
102
{ACAD_REACTORS
330
22
102
}
330
22
100
AcDbXrecord
280
     1
270
     1
271
     1
  0
XRECORD
  5
28
102
{ACAD_REACTORS
330
22
102
}
330
22
100
AcDbXrecord
280
     1
270
     1
271
     1
  0
XRECORD
  5
25
102
{ACAD_REACTORS
330
22
102
}
330
22
100
AcDbXrecord
280
     1
270
     1
271
     1
  0
CELLSTYLEMAP
  5
7886
102
{ACAD_REACTORS
330
7885
102
}
330
7885
100
AcDbCellStyleMap
 90
        3
300
CELLSTYLE
  1
TABLEFORMAT_BEGIN
 90
        5
170
     1
 91
        0
 92
    32768
 62
   257
 93
        1
300
CONTENTFORMAT
  1
CONTENTFORMAT_BEGIN
 90
        0
 91
        0
 92
      512
 93
        0
300

 40
0.0
140
1.0
 94
        5
 62
     0
340
60
144
0.25
309
CONTENTFORMAT_END
171
     0
 94
        0
309
TABLEFORMAT_END
  1
CELLSTYLE_BEGIN
 90
        1
 91
        1
300
_TITLE
309
CELLSTYLE_END
300
CELLSTYLE
  1
TABLEFORMAT_BEGIN
 90
        5
170
     1
 91
        0
 92
        0
 62
   257
 93
        1
300
CONTENTFORMAT
  1
CONTENTFORMAT_BEGIN
 90
        0
 91
        0
 92
      512
 93
        0
300

 40
0.0
140
1.0
 94
        5
 62
     0
340
60
144
0.18
309
CONTENTFORMAT_END
171
     0
 94
        0
309
TABLEFORMAT_END
  1
CELLSTYLE_BEGIN
 90
        2
 91
        1
300
_HEADER
309
CELLSTYLE_END
300
CELLSTYLE
  1
TABLEFORMAT_BEGIN
 90
        5
170
     1
 91
        0
 92
        0
 62
   257
 93
        1
300
CONTENTFORMAT
  1
CONTENTFORMAT_BEGIN
 90
        0
 91
        0
 92
      512
 93
        0
300

 40
0.0
140
1.0
 94
        2
 62
     0
340
60
144
0.18
309
CONTENTFORMAT_END
171
     0
 94
        0
309
TABLEFORMAT_END
  1
CELLSTYLE_BEGIN
 90
        3
 91
        2
300
_DATA
309
CELLSTYLE_END
  0
ACDBASSOCGEOMDEPENDENCY
  5
4C0E
330
4C0C
100
AcDbAssocDependency
 90
        2
 90
        0
290
     1
290
     1
290
     1
290
     1
 90
   -10000
330
4C03
290
     0
330
0
330
0
360
0
 90
      107
100
AcDbAssocGeomDependency
 90
        0
290
     1
  1
AcDbAssocSingleEdgePersSubentId
290
     0
  0
ACDBASSOCGEOMDEPENDENCY
  5
4C0F
330
4C0C
100
AcDbAssocDependency
 90
        2
 90
        0
290
     1
290
     1
290
     1
290
     1
 90
   -10000
330
4C02
290
     0
330
0
330
0
360
0
 90
      105
100
AcDbAssocGeomDependency
 90
        0
290
     1
  1
AcDbAssocSingleEdgePersSubentId
290
     0
  0
ACDBASSOCGEOMDEPENDENCY
  5
4C10
330
4C0C
100
AcDbAssocDependency
 90
        2
 90
        0
290
     1
290
     1
290
     1
290
     1
 90
   -10000
330
4C00
290
     0
330
0
330
0
360
0
 90
      103
100
AcDbAssocGeomDependency
 90
        0
290
     1
  1
AcDbAssocSingleEdgePersSubentId
290
     0
  0
ACDBASSOCGEOMDEPENDENCY
  5
4C11
330
4C0C
100
AcDbAssocDependency
 90
        2
 90
        0
290
     1
290
     1
290
     1
290
     1
 90
   -10000
330
4C01
290
     0
330
0
330
0
360
0
 90
      104
100
AcDbAssocGeomDependency
 90
        0
290
     1
  1
AcDbAssocSingleEdgePersSubentId
290
     0
  0
ACDBASSOCGEOMDEPENDENCY
  5
4C13
330
4C0C
100
AcDbAssocDependency
 90
        2
 90
        0
290
     1
290
     1
290
     1
290
     1
 90
   -10000
330
4BFE
290
     0
330
0
330
0
360
0
 90
      100
100
AcDbAssocGeomDependency
 90
        0
290
     1
  1
AcDbAssocSingleEdgePersSubentId
290
     0
  0
ACDBASSOCGEOMDEPENDENCY
  5
4C12
330
4C0C
100
AcDbAssocDependency
 90
        2
 90
        0
290
     1
290
     1
290
     1
290
     1
 90
   -10000
330
4BFD
290
     0
330
0
330
0
360
0
 90
      101
100
AcDbAssocGeomDependency
 90
        0
290
     1
  1
AcDbAssocSingleEdgePersSubentId
290
     0
  0
ACDBASSOCGEOMDEPENDENCY
  5
4C0D
330
4C0C
100
AcDbAssocDependency
 90
        2
 90
        0
290
     1
290
     1
290
     1
290
     1
 90
   -10000
330
4BFF
290
     0
330
0
330
0
360
0
 90
      102
100
AcDbAssocGeomDependency
 90
        0
290
     1
  1
AcDbAssocSingleEdgePersSubentId
290
     0
  0
ACDBASSOCGEOMDEPENDENCY
  5
4C14
330
4C0C
100
AcDbAssocDependency
 90
        2
 90
        0
290
     1
290
     1
290
     1
290
     1
 90
   -10000
330
4C04
290
     0
330
0
330
0
360
0
 90
      108
100
AcDbAssocGeomDependency
 90
        0
290
     1
  1
AcDbAssocSingleEdgePersSubentId
290
     0
  0
ENDSEC
  0
SECTION
  2
ACDSDATA
 70
     2
 71
     8
  0
ACDSSCHEMA
 90
        0
  1
AcDb_Thumbnail_Schema
  2
AcDbDs::ID
280
    10
 91
        8
  2
Thumbnail_Data
280
    15
 91
        0
101
ACDSRECORD
 95
        0
 90
        1
  2
AcDbDs::TreatedAsObjectData
280
     1
291
     1
101
ACDSRECORD
 95
        0
 90
        2
  2
AcDbDs::Legacy
280
     1
291
     1
101
ACDSRECORD
  1
AcDbDs::ID
 90
        3
  2
AcDs:Indexable
280
     1
291
     1
101
ACDSRECORD
  1
AcDbDs::ID
 90
        4
  2
AcDbDs::HandleAttribute
280
     7
282
     1
  0
ACDSSCHEMA
 90
        1
  1
AcDbDs::TreatedAsObjectDataSchema
  2
AcDbDs::TreatedAsObjectData
280
     1
 91
        0
  0
ACDSSCHEMA
 90
        2
  1
AcDbDs::LegacySchema
  2
AcDbDs::Legacy
280
     1
 91
        0
  0
ACDSSCHEMA
 90
        3
  1
AcDbDs::IndexedPropertySchema
  2
AcDs:Indexable
280
     1
 91
        0
  0
ACDSSCHEMA
 90
        4
  1
AcDbDs::HandleAttributeSchema
  2
AcDbDs::HandleAttribute
280
     7
 91
        1
284
     1
  0
ACDSRECORD
 90
        0
  2
AcDbDs::ID
280
    10
320
79
  2
Thumbnail_Data
280
    15
 94
     2408
310
89504E470D0A1A0A0000000D4948445200000100000000B308030000005185323B00000300504C5445212830FFFFFF2128300000000000000000000000000000000000000000000000000000330000660000990000CC0000FF0033000033330033660033990033CC0033FF0066000066330066660066990066CC0066FF0099
310
000099330099660099990099CC0099FF00CC0000CC3300CC6600CC9900CCCC00CCFF00FF0000FF3300FF6600FF9900FFCC00FFFF3300003300333300663300993300CC3300FF3333003333333333663333993333CC3333FF3366003366333366663366993366CC3366FF3399003399333399663399993399CC3399FF33CC00
310
33CC3333CC6633CC9933CCCC33CCFF33FF0033FF3333FF6633FF9933FFCC33FFFF6600006600336600666600996600CC6600FF6633006633336633666633996633CC6633FF6666006666336666666666996666CC6666FF6699006699336699666699996699CC6699FF66CC0066CC3366CC6666CC9966CCCC66CCFF66FF0066
310
FF3366FF6666FF9966FFCC66FFFF9900009900339900669900999900CC9900FF9933009933339933669933999933CC9933FF9966009966339966669966999966CC9966FF9999009999339999669999999999CC9999FF99CC0099CC3399CC6699CC9999CCCC99CCFF99FF0099FF3399FF6699FF9999FFCC99FFFFCC0000CC00
310
33CC0066CC0099CC00CCCC00FFCC3300CC3333CC3366CC3399CC33CCCC33FFCC6600CC6633CC6666CC6699CC66CCCC66FFCC9900CC9933CC9966CC9999CC99CCCC99FFCCCC00CCCC33CCCC66CCCC99CCCCCCCCCCFFCCFF00CCFF33CCFF66CCFF99CCFFCCCCFFFFFF0000FF0033FF0066FF0099FF00CCFF00FFFF3300FF3333
310
FF3366FF3399FF33CCFF33FFFF6600FF6633FF6666FF6699FF66CCFF66FFFF9900FF9933FF9966FF9999FF99CCFF99FFFFCC00FFCC33FFCC66FFCC99FFCCCCFFCCFFFFFF00FFFF33FFFF66FFFF99FFFFCCFFFFFF0000000D0D0D1A1A1A2828283535354343435050505D5D5D6B6B6B787878868686939393A1A1A1AEAEAEBB
310
BBBBC9C9C9D6D6D6E4E4E4F1F1F1FFFFFF0000000000000000000000000000000000000000000000000000000000002E4550F1000003294944415478DAED9DDD4EEC300C84FDFEEF3BF7C0B6E926697EBC5420D9339F8EA070F6C613C7769CA4980921841042082184104208218410420821841042082184F80B809F7FCCD6
310
7F7FA1D5E0653C0E0140EB00C74379A29C00C77756FBCB5C200C03C7D857D1803208DE9ED814E81FD882C0F09969F8DF53804E02C0AAC0F77A02D9F0DFD3208F13A0D88B7322E0FD2B9AE1C7F5B5F9012402FCEAFF72D5803388428075DF52AF089AC1259C0268CB3DBA19701B7B56FB9BDA972803D4E3BE30366F02C02010
310
DEE37DE204886ADA4F2DCE5C004C04309A7E00AAB83F6E8964AFFF307480AA40A029FE0D9C021409EEDD5F1A016C500ABCE3C3EAE309E301B805E876817602248E07BC02587D20602D40DAF640BB2F6A5C3140025CB3C031CD732F11F65DA0E44D627A01F65E2E01D8053009C02E804900054109A02048ED0120F700650102
310
D3521F8AF14CE1A459E0B80B62B4025CB761F05000849D00EE93AF29CF8C95B17F2A40C8B8579EBCD6218DE3573BE097077C2E40D32A0D25C519F26B055C51702200A209500CB673F277BEE015008D02C10440650FDA73B17E01AEBB03C105E8CE802D2CC1280016478A2CC0302F3AB24054016C97FA67128C05404001CACB
310
10B6E5D14680EA8D02B12A02D4D9D02FC1200BD48E107219E0A992175900B15783DB35702701C6D574E42581ED8B9FBADA7385CA88CDA0E5684E3ED19FA88FDC12725E066AA7C3F43C791687D80960190558BB7D1BF4EF33C252325EF08D4282596E053637077308801DABB2389BD583BECF3A45C42E86C68B9FAB5BE60874
310
886BFFD4296C9106E20B303A00BCB9209D6A676838D737FBA4A9F60671BE1F68D303711B194F80D2CEFFC082957F04B4BFDB11F30EE1A45D182D06DCF7449F7A40441768F29C5B804441B079492C9B00D6E73CB6297033E759100CDA15C66716AC3D207C87188F3E92C07EC70189AC02E0AA8B377723F30AD01D989200B372
310
3FE9ED71B4A75DF804B0E6D4D4CAC2B4E7C5AF20482A80EBCF67C0522BB06D08D1BD47480248806196A35560BF39462182712301C06EBF2200AF06659D40AB80B767220152CF01E2BF37D85DB5635500DC8990DD7E2184104208218410420821841042FC375FCB962621A232A3110000000049454E44AE42608216206F855F
310
77EF29DB694E3E0501DAB56CBD7523F7164D7622111032B9B6157ECDBD31E90D5F8B2442652BFC9A7BFB8E6AD144C8B34ECFDCBD21CF1D750B8B0830F88BB85D33785C18ED41711A26F3F678D30AEF698BDBC8BDFB6A8F8F027404A85BE19F736FD56F7B710126ADF08D7BDD4BF7B6BAC83C1C5D7A17A0AD8EA5EF0B684640
310
FFA4AB7819626C5D770136A93FA1B1D0086D1F2DC0DCBA85697404307F51001BCE22D322632B022CF490A80A30A8F14D8264328D544DF0ED2149B5F8565D622B12DD58005F1B73B33DE049015E995787977A29F9A7330000D73EFEF95F6300000000000000000000000000000000000000000000000000000000FF8B7F8EB8
310
18FD7AC925980000000049454E44AE42608209ACEB02293A80E016901804C337FC511445516B0BBF17A1531445511445511445511445511435A47FCC7243191911AF2A0000000049454E44AE4260824F12268CE09B2680EEDD6C8FE13545BBAC01EF9412A30DC03F80F8F6BA4A6454FF4B7700A29C7BD0CD627AEE3520AD28
310
73AF46D5042E0066FD73C3D4A701101567BAD1FF4900A465F4D4DF3C0900A638A7D2C867104162134E95A586E6B000BE98A24AE3660884C09F81AC03A094758F65005CC39DA940BD42D55C8B21D46FB61F77C9C4275F1A2901B8BBB606AC82BEF536F9667BE4B324260400C1029045D0330228159C8C6E7D9F14405CACBB8C
310
676200D78978B9262969AB92BA04C02C0F330098D902A420278D9A170380EC49CDB500E4B72E605A0DE00060E2C5501DC0B3B295D300104AD52C01C0C413DA0301D8C8141B6D01B5B8796200F24DA5535B009A541F9F2A149E0680AAF4C6C400A0BB3BE1C6DE812F00CAEA331303004173CBD06C00825BF474C73E64E98536
310
2542F11C00E7348E2C00D18DBC0485FDA22E9CFE0004C9AFD5109FB97A3CBF7C1E9E0010A505F8EAF5F55380DC19B20700E97EBE661099B1CE2DC02900D564C66D89B9054000EE96A26700C03100929F05E6EEE02DC8A8D3B5407EE16CED2B50F7A10100FE00226F9C3BBEB9A4280000000049454E44AE426082
  0
ENDSEC
  0
EOF
