  0
SECTION
  2
HEADER
  9
$ACADVER
  1
AC1021
  9
$ACADMAINTVER
 70
    25
  9
$DWGCODEPAGE
  3
ANSI_1252
  9
$LASTSAVEDBY
  1
settimi
  9
$INSBASE
 10
0.0
 20
0.0
 30
0.0
  9
$EXTMIN
 10
1.000000000000000E+20
 20
1.000000000000000E+20
 30
1.000000000000000E+20
  9
$EXTMAX
 10
-1.000000000000000E+20
 20
-1.000000000000000E+20
 30
-1.000000000000000E+20
  9
$LIMMIN
 10
0.0
 20
0.0
  9
$LIMMAX
 10
12.0
 20
9.0
  9
$ORTHOMODE
 70
     0
  9
$REGENMODE
 70
     1
  9
$FILLMODE
 70
     1
  9
$QTEXTMODE
 70
     0
  9
$MIRRTEXT
 70
     1
  9
$LTSCALE
 40
1.0
  9
$ATTMODE
 70
     1
  9
$TEXTSIZE
 40
0.2
  9
$TRACEWID
 40
0.05
  9
$TEXTSTYLE
  7
Standard
  9
$CLAYER
  8
MODEL_HOLE_30
  9
$CELTYPE
  6
ByLayer
  9
$CECOLOR
 62
   256
  9
$CELTSCALE
 40
1.0
  9
$DISPSILH
 70
     0
  9
$DIMSCALE
 40
1.0
  9
$DIMASZ
 40
0.18
  9
$DIMEXO
 40
0.0625
  9
$DIMDLI
 40
0.38
  9
$DIMRND
 40
0.0
  9
$DIMDLE
 40
0.0
  9
$DIMEXE
 40
0.18
  9
$DIMTP
 40
0.0
  9
$DIMTM
 40
0.0
  9
$DIMTXT
 40
0.18
  9
$DIMCEN
 40
0.09
  9
$DIMTSZ
 40
0.0
  9
$DIMTOL
 70
     0
  9
$DIMLIM
 70
     0
  9
$DIMTIH
 70
     1
  9
$DIMTOH
 70
     1
  9
$DIMSE1
 70
     0
  9
$DIMSE2
 70
     0
  9
$DIMTAD
 70
     0
  9
$DIMZIN
 70
     0
  9
$DIMBLK
  1

  9
$DIMASO
 70
     1
  9
$DIMSHO
 70
     1
  9
$DIMPOST
  1

  9
$DIMAPOST
  1

  9
$DIMALT
 70
     0
  9
$DIMALTD
 70
     2
  9
$DIMALTF
 40
25.4
  9
$DIMLFAC
 40
1.0
  9
$DIMTOFL
 70
     0
  9
$DIMTVP
 40
0.0
  9
$DIMTIX
 70
     0
  9
$DIMSOXD
 70
     0
  9
$DIMSAH
 70
     0
  9
$DIMBLK1
  1

  9
$DIMBLK2
  1

  9
$DIMSTYLE
  2
STANDARD_ACAD
  9
$DIMCLRD
 70
     0
  9
$DIMCLRE
 70
     0
  9
$DIMCLRT
 70
     0
  9
$DIMTFAC
 40
1.0
  9
$DIMGAP
 40
0.09
  9
$DIMJUST
 70
     0
  9
$DIMSD1
 70
     0
  9
$DIMSD2
 70
     0
  9
$DIMTOLJ
 70
     1
  9
$DIMTZIN
 70
     0
  9
$DIMALTZ
 70
     0
  9
$DIMALTTZ
 70
     0
  9
$DIMUPT
 70
     0
  9
$DIMDEC
 70
     4
  9
$DIMTDEC
 70
     4
  9
$DIMALTU
 70
     2
  9
$DIMALTTD
 70
     2
  9
$DIMTXSTY
  7
Standard
  9
$DIMAUNIT
 70
     0
  9
$DIMADEC
 70
     0
  9
$DIMALTRND
 40
0.0
  9
$DIMAZIN
 70
     0
  9
$DIMDSEP
 70
    46
  9
$DIMATFIT
 70
     3
  9
$DIMFRAC
 70
     0
  9
$DIMLDRBLK
  1

  9
$DIMLUNIT
 70
     2
  9
$DIMLWD
 70
    -2
  9
$DIMLWE
 70
    -2
  9
$DIMTMOVE
 70
     2
  9
$DIMFXL
 40
1.0
  9
$DIMFXLON
 70
     0
  9
$DIMJOGANG
 40
0.7853981633974483
  9
$DIMTFILL
 70
     0
  9
$DIMTFILLCLR
 70
     0
  9
$DIMARCSYM
 70
     0
  9
$DIMLTYPE
  6

  9
$DIMLTEX1
  6

  9
$DIMLTEX2
  6

  9
$LUNITS
 70
     2
  9
$LUPREC
 70
     3
  9
$SKETCHINC
 40
0.1
  9
$FILLETRAD
 40
0.0
  9
$AUNITS
 70
     0
  9
$AUPREC
 70
     0
  9
$MENU
  1
.
  9
$ELEVATION
 40
0.0
  9
$PELEVATION
 40
0.0
  9
$THICKNESS
 40
0.0
  9
$LIMCHECK
 70
     0
  9
$CHAMFERA
 40
0.0
  9
$CHAMFERB
 40
0.0
  9
$CHAMFERC
 40
0.0
  9
$CHAMFERD
 40
0.0
  9
$SKPOLY
 70
     0
  9
$TDCREATE
 40
2459424.567731134
  9
$TDUCREATE
 40
2459424.484397801
  9
$TDUPDATE
 40
2459424.567779375
  9
$TDUUPDATE
 40
2459424.484446042
  9
$TDINDWG
 40
0.0000000116
  9
$TDUSRTIMER
 40
0.0000000116
  9
$USRTIMER
 70
     1
  9
$ANGBASE
 50
0.0
  9
$ANGDIR
 70
     0
  9
$PDMODE
 70
     0
  9
$PDSIZE
 40
0.0
  9
$PLINEWID
 40
0.0
  9
$SPLFRAME
 70
     0
  9
$SPLINETYPE
 70
     6
  9
$SPLINESEGS
 70
     8
  9
$HANDSEED
  5
2C3
  9
$SURFTAB1
 70
     6
  9
$SURFTAB2
 70
     6
  9
$SURFTYPE
 70
     6
  9
$SURFU
 70
     6
  9
$SURFV
 70
     6
  9
$UCSBASE
  2

  9
$UCSNAME
  2

  9
$UCSORG
 10
0.0
 20
0.0
 30
0.0
  9
$UCSXDIR
 10
1.0
 20
0.0
 30
0.0
  9
$UCSYDIR
 10
0.0
 20
1.0
 30
0.0
  9
$UCSORTHOREF
  2

  9
$UCSORTHOVIEW
 70
     0
  9
$UCSORGTOP
 10
0.0
 20
0.0
 30
0.0
  9
$UCSORGBOTTOM
 10
0.0
 20
0.0
 30
0.0
  9
$UCSORGLEFT
 10
0.0
 20
0.0
 30
0.0
  9
$UCSORGRIGHT
 10
0.0
 20
0.0
 30
0.0
  9
$UCSORGFRONT
 10
0.0
 20
0.0
 30
0.0
  9
$UCSORGBACK
 10
0.0
 20
0.0
 30
0.0
  9
$PUCSBASE
  2

  9
$PUCSNAME
  2

  9
$PUCSORG
 10
0.0
 20
0.0
 30
0.0
  9
$PUCSXDIR
 10
1.0
 20
0.0
 30
0.0
  9
$PUCSYDIR
 10
0.0
 20
1.0
 30
0.0
  9
$PUCSORTHOREF
  2

  9
$PUCSORTHOVIEW
 70
     0
  9
$PUCSORGTOP
 10
0.0
 20
0.0
 30
0.0
  9
$PUCSORGBOTTOM
 10
0.0
 20
0.0
 30
0.0
  9
$PUCSORGLEFT
 10
0.0
 20
0.0
 30
0.0
  9
$PUCSORGRIGHT
 10
0.0
 20
0.0
 30
0.0
  9
$PUCSORGFRONT
 10
0.0
 20
0.0
 30
0.0
  9
$PUCSORGBACK
 10
0.0
 20
0.0
 30
0.0
  9
$USERI1
 70
     0
  9
$USERI2
 70
     0
  9
$USERI3
 70
     0
  9
$USERI4
 70
     0
  9
$USERI5
 70
     0
  9
$USERR1
 40
0.0
  9
$USERR2
 40
0.0
  9
$USERR3
 40
0.0
  9
$USERR4
 40
0.0
  9
$USERR5
 40
0.0
  9
$WORLDVIEW
 70
     1
  9
$SHADEDGE
 70
     3
  9
$SHADEDIF
 70
    70
  9
$TILEMODE
 70
     1
  9
$MAXACTVP
 70
    64
  9
$PINSBASE
 10
0.0
 20
0.0
 30
0.0
  9
$PLIMCHECK
 70
     0
  9
$PEXTMIN
 10
1.000000000000000E+20
 20
1.000000000000000E+20
 30
1.000000000000000E+20
  9
$PEXTMAX
 10
-1.000000000000000E+20
 20
-1.000000000000000E+20
 30
-1.000000000000000E+20
  9
$PLIMMIN
 10
0.0
 20
0.0
  9
$PLIMMAX
 10
12.0
 20
9.0
  9
$UNITMODE
 70
     0
  9
$VISRETAIN
 70
     1
  9
$PLINEGEN
 70
     0
  9
$PSLTSCALE
 70
     1
  9
$TREEDEPTH
 70
  3020
  9
$CMLSTYLE
  2
Standard
  9
$CMLJUST
 70
     0
  9
$CMLSCALE
 40
1.0
  9
$PROXYGRAPHICS
 70
     1
  9
$MEASUREMENT
 70
     1
  9
$CELWEIGHT
370
    -1
  9
$ENDCAPS
280
     0
  9
$JOINSTYLE
280
     0
  9
$LWDISPLAY
290
     0
  9
$INSUNITS
 70
     6
  9
$HYPERLINKBASE
  1

  9
$STYLESHEET
  1

  9
$XEDIT
290
     1
  9
$CEPSNTYPE
380
     0
  9
$PSTYLEMODE
290
     1
  9
$FINGERPRINTGUID
  2
{3de42575-4eca-442b-8f64-0ff8fc48101f}
  9
$VERSIONGUID
  2
{FAEB1C32-E019-11D5-929B-00C0DF256EC4}
  9
$EXTNAMES
290
     1
  9
$PSVPSCALE
 40
0.0
  9
$OLESTARTUP
290
     0
  9
$SORTENTS
280
   127
  9
$INDEXCTL
280
     0
  9
$HIDETEXT
280
     1
  9
$XCLIPFRAME
290
     0
  9
$HALOGAP
280
     0
  9
$OBSCOLOR
 70
   257
  9
$OBSLTYPE
280
     0
  9
$INTERSECTIONDISPLAY
280
     0
  9
$INTERSECTIONCOLOR
 70
   257
  9
$DIMASSOC
280
     2
  9
$PROJECTNAME
  1

  9
$CAMERADISPLAY
290
     0
  9
$LENSLENGTH
 40
50.0
  9
$CAMERAHEIGHT
 40
0.0
  9
$STEPSPERSEC
 40
2.0
  9
$STEPSIZE
 40
6.0
  9
$3DDWFPREC
 40
2.0
  9
$PSOLWIDTH
 40
0.25
  9
$PSOLHEIGHT
 40
4.0
  9
$LOFTANG1
 40
1.570796326794897
  9
$LOFTANG2
 40
1.570796326794897
  9
$LOFTMAG1
 40
0.0
  9
$LOFTMAG2
 40
0.0
  9
$LOFTPARAM
 70
     7
  9
$LOFTNORMALS
280
     1
  9
$LATITUDE
 40
37.795
  9
$LONGITUDE
 40
-122.394
  9
$NORTHDIRECTION
 40
0.0
  9
$TIMEZONE
 70
 -8000
  9
$LIGHTGLYPHDISPLAY
280
     1
  9
$TILEMODELIGHTSYNCH
280
     1
  9
$CMATERIAL
347
44
  9
$SOLIDHIST
280
     0
  9
$SHOWHIST
280
     1
  9
$DWFFRAME
280
     2
  9
$DGNFRAME
280
     2
  9
$REALWORLDSCALE
290
     1
  9
$INTERFERECOLOR
 62
   256
  9
$CSHADOW
280
     0
  9
$SHADOWPLANELOCATION
 40
0.0
  0
ENDSEC
  0
SECTION
  2
CLASSES
  0
CLASS
  1
ACDBDICTIONARYWDFLT
  2
AcDbDictionaryWithDefault
  3
ObjectDBX Classes
 90
        0
 91
        3
280
     0
281
     0
  0
CLASS
  1
VISUALSTYLE
  2
AcDbVisualStyle
  3
ObjectDBX Classes
 90
     4095
 91
        3
280
     0
281
     0
  0
CLASS
  1
MATERIAL
  2
AcDbMaterial
  3
ObjectDBX Classes
 90
     1153
 91
        3
280
     0
281
     0
  0
CLASS
  1
SCALE
  2
AcDbScale
  3
ObjectDBX Classes
 90
     1153
 91
        3
280
     0
281
     0
  0
CLASS
  1
TABLESTYLE
  2
AcDbTableStyle
  3
ObjectDBX Classes
 90
     4095
 91
        3
280
     0
281
     0
  0
CLASS
  1
MLEADERSTYLE
  2
AcDbMLeaderStyle
  3
ACDB_MLEADERSTYLE_CLASS
 90
     4095
 91
        3
280
     0
281
     0
  0
CLASS
  1
SUN
  2
AcDbSun
  3
SCENEOE
 90
     1153
 91
        3
280
     0
281
     0
  0
CLASS
  1
DICTIONARYVAR
  2
AcDbDictionaryVar
  3
ObjectDBX Classes
 90
        0
 91
        3
280
     0
281
     0
  0
CLASS
  1
CELLSTYLEMAP
  2
AcDbCellStyleMap
  3
ObjectDBX Classes
 90
     1152
 91
        3
280
     0
281
     0
  0
ENDSEC
  0
SECTION
  2
TABLES
  0
TABLE
  2
VPORT
  5
8
330
0
100
AcDbSymbolTable
 70
     1
  0
VPORT
  5
29
330
8
100
AcDbSymbolTableRecord
100
AcDbViewportTableRecord
  2
*Active
 70
     0
 10
0.0
 20
0.0
 11
1.0
 21
1.0
 12
10.42990654205607
 22
4.5
 13
0.0
 23
0.0
 14
0.5
 24
0.5
 15
0.5
 25
0.5
 16
0.0
 26
0.0
 36
1.0
 17
0.0
 27
0.0
 37
0.0
 40
9.0
 41
1.972972972850329
 42
50.0
 43
0.0
 44
0.0
 50
0.0
 51
0.0
 71
     0
 72
   100
 73
     1
 74
     3
 75
     0
 76
     0
 77
     0
 78
     0
281
     0
 65
     1
110
0.0
120
0.0
130
0.0
111
1.0
121
0.0
131
0.0
112
0.0
122
1.0
132
0.0
 79
     0
146
0.0
348
2F
 60
     3
 61
     5
292
     1
282
     1
141
0.0
142
0.0
 63
   250
361
5D
  0
ENDTAB
  0
TABLE
  2
LTYPE
  5
5
330
0
100
AcDbSymbolTable
 70
     1
  0
LTYPE
  5
14
330
5
100
AcDbSymbolTableRecord
100
AcDbLinetypeTableRecord
  2
ByBlock
 70
     0
  3

 72
    65
 73
     0
 40
0.0
  0
LTYPE
  5
15
330
5
100
AcDbSymbolTableRecord
100
AcDbLinetypeTableRecord
  2
ByLayer
 70
     0
  3

 72
    65
 73
     0
 40
0.0
  0
LTYPE
  5
16
330
5
100
AcDbSymbolTableRecord
100
AcDbLinetypeTableRecord
  2
Continuous
 70
     0
  3
Solid line
 72
    65
 73
     0
 40
0.0
  0
ENDTAB
  0
TABLE
  2
LAYER
  5
2
330
0
100
AcDbSymbolTable
 70
     9
  0
LAYER
  5
10
330
2
100
AcDbSymbolTableRecord
100
AcDbLayerTableRecord
  2
0
 70
     0
 62
     7
  6
Continuous
370
    -3
390
F
347
46
  0
LAYER
  5
5F
330
2
100
AcDbSymbolTableRecord
100
AcDbLayerTableRecord
  2
TIMBER_HOLE_AXES
 70
     0
 62
   111
420
  8388543
  6
Continuous
370
    -3
390
F
347
46
  0
LAYER
  5
88
330
2
100
AcDbSymbolTableRecord
100
AcDbLayerTableRecord
  2
MODEL_HOLE_70
 70
     0
 62
    54
420
  9414400
  6
Continuous
370
    40
390
F
347
46
  0
LAYER
  5
8C
330
2
100
AcDbSymbolTableRecord
100
AcDbLayerTableRecord
  2
MODEL_HOLE_80
 70
     0
 62
    40
420
 16754432
  6
Continuous
370
    40
390
F
347
46
  0
LAYER
  5
90
330
2
100
AcDbSymbolTableRecord
100
AcDbLayerTableRecord
  2
MODEL_HOLE_90
 70
     0
 62
     1
420
 16711680
  6
Continuous
370
    40
390
F
347
46
  0
LAYER
  5
9D
330
2
100
AcDbSymbolTableRecord
100
AcDbLayerTableRecord
  2
MODEL_HOLE_30
 70
     0
 62
     2
420
 16771328
  6
Continuous
370
    40
390
F
347
46
  0
LAYER
  5
A0
330
2
100
AcDbSymbolTableRecord
100
AcDbLayerTableRecord
  2
MODEL_HOLE_40
 70
     0
 62
     4
420
    65535
  6
Continuous
370
    40
390
F
347
46
  0
LAYER
  5
A7
330
2
100
AcDbSymbolTableRecord
100
AcDbLayerTableRecord
  2
MODEL_HOLE_50
 70
     0
 62
     6
420
 16711935
  6
Continuous
370
    40
390
F
347
46
  0
LAYER
  5
AE
330
2
100
AcDbSymbolTableRecord
100
AcDbLayerTableRecord
  2
MODEL_HOLE_60
 70
     0
 62
     3
420
    65280
  6
Continuous
370
    40
390
F
347
46
  0
ENDTAB
  0
TABLE
  2
STYLE
  5
3
330
0
100
AcDbSymbolTable
 70
     1
  0
STYLE
  5
11
330
3
100
AcDbSymbolTableRecord
100
AcDbTextStyleTableRecord
  2
Standard
 70
     0
 40
0.0
 41
1.0
 50
0.0
 71
     0
 42
0.2
  3
txt
  4

  0
ENDTAB
  0
TABLE
  2
VIEW
  5
6
330
0
100
AcDbSymbolTable
 70
     0
  0
ENDTAB
  0
TABLE
  2
UCS
  5
7
330
0
100
AcDbSymbolTable
 70
     0
  0
ENDTAB
  0
TABLE
  2
APPID
  5
9
330
0
100
AcDbSymbolTable
 70
     3
  0
APPID
  5
12
330
9
100
AcDbSymbolTableRecord
100
AcDbRegAppTableRecord
  2
ACAD
 70
     0
  0
APPID
  5
5E
330
9
100
AcDbSymbolTableRecord
100
AcDbRegAppTableRecord
  2
Rhino
 70
     0
  0
APPID
  5
2BB
330
9
100
AcDbSymbolTableRecord
100
AcDbRegAppTableRecord
  2
ACAD_MLEADERVER
 70
     0
  0
ENDTAB
  0
TABLE
  2
DIMSTYLE
  5
A
330
0
100
AcDbSymbolTable
 70
     1
100
AcDbDimStyleTable
  0
DIMSTYLE
105
27
330
A
100
AcDbSymbolTableRecord
100
AcDbDimStyleTableRecord
  2
STANDARD_ACAD
 70
     0
178
     0
340
11
  0
ENDTAB
  0
TABLE
  2
BLOCK_RECORD
  5
1
330
0
100
AcDbSymbolTable
 70
     1
  0
BLOCK_RECORD
  5
1F
330
1
100
AcDbSymbolTableRecord
100
AcDbBlockTableRecord
  2
*Model_Space
340
22
 70
     0
280
     1
281
     0
  0
BLOCK_RECORD
  5
1B
330
1
100
AcDbSymbolTableRecord
100
AcDbBlockTableRecord
  2
*Paper_Space
340
1E
 70
     0
280
     1
281
     0
  0
BLOCK_RECORD
  5
23
330
1
100
AcDbSymbolTableRecord
100
AcDbBlockTableRecord
  2
*Paper_Space0
340
26
 70
     0
280
     1
281
     0
  0
ENDTAB
  0
ENDSEC
  0
SECTION
  2
BLOCKS
  0
BLOCK
  5
20
330
1F
100
AcDbEntity
  8
0
100
AcDbBlockBegin
  2
*Model_Space
 70
     0
 10
0.0
 20
0.0
 30
0.0
  3
*Model_Space
  1

  0
ENDBLK
  5
21
330
1F
100
AcDbEntity
  8
0
100
AcDbBlockEnd
  0
BLOCK
  5
1C
330
1B
100
AcDbEntity
 67
     1
  8
0
100
AcDbBlockBegin
  2
*Paper_Space
 70
     0
 10
0.0
 20
0.0
 30
0.0
  3
*Paper_Space
  1

  0
ENDBLK
  5
1D
330
1B
100
AcDbEntity
 67
     1
  8
0
100
AcDbBlockEnd
  0
BLOCK
  5
24
330
23
100
AcDbEntity
  8
0
100
AcDbBlockBegin
  2
*Paper_Space0
 70
     0
 10
0.0
 20
0.0
 30
0.0
  3
*Paper_Space0
  1

  0
ENDBLK
  5
25
330
23
100
AcDbEntity
  8
0
100
AcDbBlockEnd
  0
ENDSEC
  0
SECTION
  2
ENTITIES
  0
LINE
  5
60
330
1F
100
AcDbEntity
  8
TIMBER_HOLE_AXES
100
AcDbLine
 10
5.898411884999164
 20
0.8878218851432967
 30
0.0356377936716048
 11
5.898165758233239
 21
0.95059189864929
 31
0.1105495877838254
  0
LINE
  5
61
330
1F
100
AcDbEntity
  8
TIMBER_HOLE_AXES
100
AcDbLine
 10
5.896434430503393
 20
0.2885087056890017
 30
0.0103075710696516
 11
5.896789416577589
 21
0.3034722874084759
 31
0.0926176542028752
  0
LINE
  5
62
330
1F
100
AcDbEntity
  8
TIMBER_HOLE_AXES
100
AcDbLine
 10
0.1463764110404003
 20
1.068494335637945
 30
0.19303490562081
 11
0.1490237960820681
 21
0.9484428188742644
 31
0.0914632673734013
  0
LINE
  5
63
330
1F
100
AcDbEntity
  8
TIMBER_HOLE_AXES
100
AcDbLine
 10
0.0769915906106325
 20
1.030829817550019
 30
0.0865835083991656
 11
0.0796798903793016
 21
1.145112195621918
 31
0.1932287564488724
  0
LINE
  5
64
330
1F
100
AcDbEntity
  8
TIMBER_HOLE_AXES
100
AcDbLine
 10
0.150477894155652
 20
1.156669370049537
 30
0.1927813399524356
 11
0.1499639497784654
 21
1.027154428199058
 31
0.0819218809856289
  0
LINE
  5
65
330
1F
100
AcDbEntity
  8
TIMBER_HOLE_AXES
100
AcDbLine
 10
0.081415405477881
 20
1.0970169373625
 30
0.0844762079513161
 11
0.0747861314784287
 21
1.222479302684173
 31
0.1929757946394573
  0
LINE
  5
66
330
1F
100
AcDbEntity
  8
TIMBER_HOLE_AXES
100
AcDbLine
 10
0.1506617163146214
 20
1.229754310202178
 30
0.1924725786241195
 11
0.1515561872007766
 21
1.094653858681644
 31
0.0761959686918544
  0
LINE
  5
67
330
1F
100
AcDbEntity
  8
TIMBER_HOLE_AXES
100
AcDbLine
 10
0.082446832478038
 20
1.267494912754884
 30
0.1061013914359729
 11
0.0804713310605204
 21
1.406618389295527
 31
0.1918785042417482
  0
LINE
  5
68
330
1F
100
AcDbEntity
  8
TIMBER_HOLE_AXES
100
AcDbLine
 10
0.1537224705861903
 20
1.255279312424497
 30
0.1004754238627787
 11
0.1473287428206239
 21
1.411896638618238
 31
0.1918033080530021
  0
LINE
  5
69
330
1F
100
AcDbEntity
  8
TIMBER_HOLE_AXES
100
AcDbLine
 10
0.069321370424822
 20
0.6324691327772634
 30
0.1938090846499351
 11
0.0656470441423501
 21
0.5445300137656535
 31
0.0436567964382852
  0
LINE
  5
6A
330
1F
100
AcDbEntity
  8
TIMBER_HOLE_AXES
100
AcDbLine
 10
0.1310815186482245
 20
0.5548273259090912
 30
0.0405309772112003
 11
0.1326544924696341
 21
0.6433697886123024
 31
0.193343423045107
  0
LINE
  5
6B
330
1F
100
AcDbEntity
  8
TIMBER_HOLE_AXES
100
AcDbLine
 10
0.0661103330040435
 20
0.6056794363637401
 30
0.0416440055057496
 11
0.0698304500351855
 21
0.6947144836591104
 31
0.1936675444346218
  0
LINE
  5
6C
330
1F
100
AcDbEntity
  8
TIMBER_HOLE_AXES
100
AcDbLine
 10
0.131961244570762
 20
0.6071418853413242
 30
0.0457454345674001
 11
0.1334805130449349
 21
0.6926612820277747
 31
0.193340472867856
  0
LINE
  5
6D
330
1F
100
AcDbEntity
  8
TIMBER_HOLE_AXES
100
AcDbLine
 10
0.0736239017868908
 20
0.8038344980590058
 30
0.1934080540133579
 11
0.0674715906728059
 21
0.6997855817912573
 31
0.0706642316664592
  0
LINE
  5
6E
330
1F
100
AcDbEntity
  8
TIMBER_HOLE_AXES
100
AcDbLine
 10
0.1420274724120049
 20
0.6941880396858053
 30
0.0576636531945733
 11
0.1406752446897807
 21
0.8048554798868466
 31
0.1931299431795019
  0
LINE
  5
6F
330
1F
100
AcDbEntity
  8
TIMBER_HOLE_AXES
100
AcDbLine
 10
0.0721701946251251
 20
0.8672159621530522
 30
0.1934055095392558
 11
0.0760666054275728
 21
0.7535189277096972
 31
0.0567721770347132
  0
LINE
  5
70
330
1F
100
AcDbEntity
  8
TIMBER_HOLE_AXES
100
AcDbLine
 10
0.1406637404004606
 20
0.8646125479618441
 30
0.1928794249075021
 11
0.143059741776706
 21
0.7541334687697745
 31
0.0583488022263627
  0
LINE
  5
71
330
1F
100
AcDbEntity
  8
TIMBER_HOLE_AXES
100
AcDbLine
 10
0.073187914153788
 20
0.9363088029468685
 30
0.1934550087093424
 11
0.07434294558315
 21
0.8240452982422184
 31
0.053439747391786
  0
LINE
  5
72
330
1F
100
AcDbEntity
  8
TIMBER_HOLE_AXES
100
AcDbLine
 10
0.1438903312347136
 20
0.9339650899603225
 30
0.1930385834085075
 11
0.1461389041695759
 21
0.8236489667640221
 31
0.0598141521570931
  0
LINE
  5
73
330
1F
100
AcDbEntity
  8
TIMBER_HOLE_AXES
100
AcDbLine
 10
0.0779607411013986
 20
1.079684340500853
 30
0.1934460780762055
 11
0.0814001544863122
 21
0.9618973388787158
 31
0.0906544907410251
  0
LINE
  5
74
330
1F
100
AcDbEntity
  8
TIMBER_HOLE_AXES
100
AcDbLine
 10
0.120153912368072
 20
0.0299125914720442
 30
0.0369825817413747
 11
0.1205211664091367
 21
0.0264283676051988
 31
0.1938222877641871
  0
LINE
  5
75
330
1F
100
AcDbEntity
  8
TIMBER_HOLE_AXES
100
AcDbLine
 10
0.0601942759722908
 20
0.0346278305046219
 30
0.0374177984590375
 11
0.0605621704336271
 21
0.0311375308228214
 31
0.1945310027034109
  0
LINE
  5
76
330
1F
100
AcDbEntity
  8
TIMBER_HOLE_AXES
100
AcDbLine
 10
0.1209607714101258
 20
0.0814653789679891
 30
0.0354932625086283
 11
0.1213321830881479
 21
0.0779417106395552
 31
0.194108531180786
  0
LINE
  5
77
330
1F
100
AcDbEntity
  8
TIMBER_HOLE_AXES
100
AcDbLine
 10
0.0621208815249422
 20
0.0799659721051853
 30
0.0319594841175134
 11
0.0606353637731466
 21
0.0822979052501189
 31
0.1946414521171739
  0
LINE
  5
78
330
1F
100
AcDbEntity
  8
TIMBER_HOLE_AXES
100
AcDbLine
 10
0.1191791549513251
 20
0.1204068338830382
 30
0.0500722229912744
 11
0.1237278437072772
 21
0.123353083043531
 31
0.1940710255852109
  0
LINE
  5
79
330
1F
100
AcDbEntity
  8
TIMBER_HOLE_AXES
100
AcDbLine
 10
0.0641224388110494
 20
0.1337354748192912
 30
0.0544598951600761
 11
0.0644141112699831
 21
0.1333037539739284
 31
0.1946586669592891
  0
LINE
  5
7A
330
1F
100
AcDbEntity
  8
TIMBER_HOLE_AXES
100
AcDbLine
 10
0.1281679081573862
 20
0.1736006476904262
 30
0.0226841194247282
 11
0.1281396327989081
 21
0.2066332769946602
 31
0.1942209543054164
  0
LINE
  5
7B
330
1F
100
AcDbEntity
  8
TIMBER_HOLE_AXES
100
AcDbLine
 10
0.0591624246409616
 20
0.2052583579719229
 30
0.1945966430050811
 11
0.0604611126841116
 21
0.1724184008122212
 31
0.0234743147665012
  0
LINE
  5
7C
330
1F
100
AcDbEntity
  8
TIMBER_HOLE_AXES
100
AcDbLine
 10
0.1291125099056524
 20
0.2555633403734507
 30
0.1941429186787331
 11
0.13083178900451
 21
0.2232485074646249
 31
0.0147876471494575
  0
LINE
  5
7D
330
1F
100
AcDbEntity
  8
TIMBER_HOLE_AXES
100
AcDbLine
 10
0.0636804159493723
 20
0.2519030554602146
 30
0.1945224754636976
 11
0.0647371846689319
 21
0.2272506723444057
 31
0.0463308563306509
  0
LINE
  5
7E
330
1F
100
AcDbEntity
  8
TIMBER_HOLE_AXES
100
AcDbLine
 10
0.1320200247541102
 20
0.2813168814244378
 30
0.0541064044713042
 11
0.1299461868821802
 21
0.3074699008859536
 31
0.1939724680282541
  0
LINE
  5
7F
330
1F
100
AcDbEntity
  8
TIMBER_HOLE_AXES
100
AcDbLine
 10
0.0648876002999169
 20
0.285049123684944
 30
0.0735503439096984
 11
0.066429235689747
 21
0.3028642856939943
 31
0.194387756693183
  0
LINE
  5
80
330
1F
100
AcDbEntity
  8
TIMBER_HOLE_AXES
100
AcDbLine
 10
0.126919568008279
 20
0.3892842444677438
 30
0.1937435862069131
 11
0.1269571079573591
 21
0.3296764389132498
 31
0.0385967723617285
  0
LINE
  5
81
330
1F
100
AcDbEntity
  8
TIMBER_HOLE_AXES
100
AcDbLine
 10
0.0628329087176508
 20
0.439727438330932
 30
0.1941087365094727
 11
0.0598811297715441
 21
0.3796691784486406
 31
0.0290611535613122
  0
LINE
  5
82
330
1F
100
AcDbEntity
  8
TIMBER_HOLE_AXES
100
AcDbLine
 10
0.061704336946406
 20
0.3491459658259242
 30
0.0803693055501644
 11
0.0640907559603318
 21
0.3884086191334823
 31
0.1941466245331367
  0
LINE
  5
83
330
1F
100
AcDbEntity
  8
TIMBER_HOLE_AXES
100
AcDbLine
 10
0.127129342962561
 20
0.441648343439077
 30
0.1936267766466726
 11
0.1266753932298209
 21
0.3898628976148153
 31
0.0449146863170529
  0
LINE
  5
84
330
1F
100
AcDbEntity
  8
TIMBER_HOLE_AXES
100
AcDbLine
 10
0.060450146083879
 20
0.4371585215142666
 30
0.0442602972326193
 11
0.0634732126910843
 21
0.4916989769573323
 31
0.1940561404545821
  0
LINE
  5
85
330
1F
100
AcDbEntity
  8
TIMBER_HOLE_AXES
100
AcDbLine
 10
0.1292783304922419
 20
0.4440842766298907
 30
0.0490531581999402
 11
0.1305013128370861
 21
0.4949682744255437
 31
0.1934636333278903
  0
LINE
  5
86
330
1F
100
AcDbEntity
  8
TIMBER_HOLE_AXES
100
AcDbLine
 10
0.0553421041643155
 20
0.4925020349723663
 30
0.0509126624261854
 11
0.0586860081112038
 21
0.5772662801524877
 31
0.1938532226104223
  0
LINE
  5
87
330
1F
100
AcDbEntity
  8
TIMBER_HOLE_AXES
100
AcDbLine
 10
0.1317645927737957
 20
0.5812105060812787
 30
0.1931957113334094
 11
0.1303212187075841
 21
0.4999631943429925
 31
0.0529737201541773
  0
LINE
  5
89
330
1F
100
AcDbEntity
  8
MODEL_HOLE_70
100
AcDbLine
 10
0.1315910789254423
 20
0.4333494882480444
 30
0.0345205256521308
 11
0.1325883418037525
 21
0.4919662412492087
 31
0.1934610604099928
  0
LINE
  5
8A
330
1F
100
AcDbEntity
  8
MODEL_HOLE_70
100
AcDbLine
 10
0.1306501143286861
 20
0.3801063397111797
 30
0.0346326811534423
 11
0.1316475081875667
 21
0.4387307914404701
 31
0.1935940911714127
  0
LINE
  5
8B
330
1F
100
AcDbEntity
  8
MODEL_HOLE_70
100
AcDbLine
 10
0.1297091497319335
 20
0.3268631911743043
 30
0.034744836654754
 11
0.1307068689664516
 21
0.3855067677138884
 31
0.1937581039902844
  0
LINE
  5
8D
330
1F
100
AcDbEntity
  8
MODEL_HOLE_80
100
AcDbLine
 10
0.1288377638964339
 20
0.2768712464894563
 30
0.0349599486173066
 11
0.1293207774990036
 21
0.3056146995586246
 31
0.1939912041291919
  0
LINE
  5
8E
330
1F
100
AcDbEntity
  8
MODEL_HOLE_80
100
AcDbLine
 10
0.1279691978472063
 20
0.2261078158511722
 30
0.0351783802173516
 11
0.1284520101561276
 21
0.2548392902215468
 31
0.1941433602019424
  0
LINE
  5
8F
330
1F
100
AcDbEntity
  8
MODEL_HOLE_80
100
AcDbLine
 10
0.1271006317979734
 20
0.1753443852128918
 30
0.0353968118173966
 11
0.1275830464478477
 21
0.2040521954583916
 31
0.1942308633613212
  0
LINE
  5
91
330
1F
100
AcDbEntity
  8
MODEL_HOLE_90
100
AcDbLine
 10
0.1262409838662312
 20
0.125352238506153
 30
0.0356119246389029
 11
0.1262409838662312
 21
0.126033835525746
 31
0.1940148406518249
  0
LINE
  5
92
330
1F
100
AcDbEntity
  8
MODEL_HOLE_90
100
AcDbLine
 10
0.1253803974213604
 20
0.0753601079506865
 30
0.0358270373909113
 11
0.1253803974213604
 21
0.0760406420141848
 31
0.1939829227681584
  0
LINE
  5
93
330
1F
100
AcDbEntity
  8
MODEL_HOLE_90
100
AcDbLine
 10
0.1245198109764897
 20
0.0253679773952236
 30
0.0360421501429197
 11
0.1245198109764897
 21
0.0260467535837989
 31
0.1937895059842016
  0
LINE
  5
94
330
1F
100
AcDbEntity
  8
MODEL_HOLE_70
100
AcDbLine
 10
0.0642872376183908
 20
0.433329761623007
 30
0.0345205256521308
 11
0.0652881338024541
 21
0.4921600717419565
 31
0.1940401249395742
  0
LINE
  5
95
330
1F
100
AcDbEntity
  8
MODEL_HOLE_70
100
AcDbLine
 10
0.0633462730216346
 20
0.3800866130861422
 30
0.0346326811534423
 11
0.0643468047802872
 21
0.4388955031413744
 31
0.1940941994963095
  0
LINE
  5
96
330
1F
100
AcDbEntity
  8
MODEL_HOLE_70
100
AcDbLine
 10
0.062405308424882
 20
0.3268434645492668
 30
0.034744836654754
 11
0.0634057944449989
 21
0.3856496662016866
 31
0.1941990653379503
  0
LINE
  5
97
330
1F
100
AcDbEntity
  8
MODEL_HOLE_80
100
AcDbLine
 10
0.0615339225893824
 20
0.2768515198644188
 30
0.0349599486173066
 11
0.0620181533666714
 21
0.3056674052714179
 31
0.1943919564534578
  0
LINE
  5
98
330
1F
100
AcDbEntity
  8
MODEL_HOLE_80
100
AcDbLine
 10
0.0606653565401548
 20
0.2260880892261348
 30
0.0351783802173516
 11
0.0611494745402189
 21
0.2548972634208511
 31
0.194573256379973
  0
LINE
  5
99
330
1F
100
AcDbEntity
  8
MODEL_HOLE_80
100
AcDbLine
 10
0.0597967904909219
 20
0.1753246585878543
 30
0.0353968118173966
 11
0.060280283400174
 21
0.2040966345166702
 31
0.1945858780895156
  0
LINE
  5
9A
330
1F
100
AcDbEntity
  8
MODEL_HOLE_90
100
AcDbLine
 10
0.0589371425591797
 20
0.1253325118811155
 30
0.0356119246389029
 11
0.0589371425591797
 21
0.1260170984347866
 31
0.1947096073571573
  0
LINE
  5
9B
330
1F
100
AcDbEntity
  8
MODEL_HOLE_90
100
AcDbLine
 10
0.058076556114309
 20
0.075340381325649
 30
0.0358270373909113
 11
0.058076556114309
 21
0.0760236360686264
 31
0.1946152077558862
  0
LINE
  5
9C
330
1F
100
AcDbEntity
  8
MODEL_HOLE_90
100
AcDbLine
 10
0.0572159696694382
 20
0.0253482507701861
 30
0.0360421501429197
 11
0.0572159696694382
 21
0.0260297862379879
 31
0.1944307615398379
  0
LINE
  5
9E
330
1F
100
AcDbEntity
  8
MODEL_HOLE_30
100
AcDbLine
 10
0.1482851656093257
 20
1.405126974367306
 30
0.1917932590137668
 11
0.1457511805497295
 21
1.257560081338777
 31
0.1074274424668705
  0
LINE
  5
9F
330
1F
100
AcDbEntity
  8
MODEL_HOLE_30
100
AcDbLine
 10
0.0809838283928198
 20
1.405253073725049
 30
0.1918766295304095
 11
0.0784498433332236
 21
1.25768618069652
 31
0.1075108129835132
  0
LINE
  5
A1
330
1F
100
AcDbEntity
  8
MODEL_HOLE_40
100
AcDbLine
 10
0.1452372064973905
 20
1.227838844836377
 30
0.1925721770814694
 11
0.1429957651200694
 21
1.097161592065795
 31
0.0838595671924331
  0
LINE
  5
A2
330
1F
100
AcDbEntity
  8
MODEL_HOLE_40
100
AcDbLine
 10
0.0779407047532529
 20
1.228247018725618
 30
0.1929281547339964
 11
0.0756992633759318
 21
1.097569765955036
 31
0.0842155448449601
  0
LINE
  5
A3
330
1F
100
AcDbEntity
  8
MODEL_HOLE_40
100
AcDbLine
 10
0.1438967515466744
 20
1.150119277807836
 30
0.1929138988250902
 11
0.1416553101693533
 21
1.019442025037254
 31
0.0842012889360539
  0
LINE
  5
A4
330
1F
100
AcDbEntity
  8
MODEL_HOLE_40
100
AcDbLine
 10
0.0765998569738863
 20
1.150504549572894
 30
0.1932508238143633
 11
0.0743584155965652
 21
1.019827296802312
 31
0.0845382139253271
  0
LINE
  5
A5
330
1F
100
AcDbEntity
  8
MODEL_HOLE_40
100
AcDbLine
 10
0.1425532316506563
 20
1.072118253708922
 30
0.193059635594347
 11
0.1403117902733352
 21
0.9414410009383403
 31
0.0843470257053107
  0
LINE
  5
A6
330
1F
100
AcDbEntity
  8
MODEL_HOLE_40
100
AcDbLine
 10
0.0752576828653434
 20
1.072581985616495
 30
0.1934618328990726
 11
0.0730162414880223
 21
0.9419047328459129
 31
0.0847492230100364
  0
LINE
  5
A8
330
1F
100
AcDbEntity
  8
MODEL_HOLE_50
100
AcDbLine
 10
0.1401884805419725
 20
0.934745476503366
 30
0.1930555983039582
 11
0.138307687908961
 21
0.8249284261903007
 31
0.0632993727130082
  0
LINE
  5
A9
330
1F
100
AcDbEntity
  8
MODEL_HOLE_50
100
AcDbLine
 10
0.0728905665093186
 20
0.9350718357674452
 30
0.1934645220418852
 11
0.071009773876307
 21
0.8252547854543799
 31
0.0637082964509353
  0
LINE
  5
AA
330
1F
100
AcDbEntity
  8
MODEL_HOLE_50
100
AcDbLine
 10
0.1390595757886998
 20
0.8692401099930365
 30
0.1929506944641348
 11
0.1371787831556882
 21
0.7594230596799711
 31
0.0631944688731848
  0
LINE
  5
AB
330
1F
100
AcDbEntity
  8
MODEL_HOLE_50
100
AcDbLine
 10
0.0717619525938406
 20
0.8695834508999738
 30
0.1933796831544106
 11
0.069881159960829
 21
0.7597664005869085
 31
0.0636234575634606
  0
LINE
  5
AC
330
1F
100
AcDbEntity
  8
MODEL_HOLE_50
100
AcDbLine
 10
0.1379357274064573
 20
0.8040241992107227
 30
0.1931878040399755
 11
0.1360549347734458
 21
0.6942071488976573
 31
0.0634315784490256
  0
LINE
  5
AD
330
1F
100
AcDbEntity
  8
MODEL_HOLE_50
100
AcDbLine
 10
0.070634938527533
 20
0.8041826999177566
 30
0.1933983916112182
 11
0.0687541458945214
 21
0.6943656496046913
 31
0.0636421660202683
  0
LINE
  5
AF
330
1F
100
AcDbEntity
  8
MODEL_HOLE_60
100
AcDbLine
 10
0.1360049697012399
 20
0.6918635181197814
 30
0.1933273150108692
 11
0.1345419727449605
 21
0.6062434057678736
 31
0.0464700509727811
  0
LINE
  5
B0
330
1F
100
AcDbEntity
  8
MODEL_HOLE_60
100
AcDbLine
 10
0.068704952254892
 20
0.692067578278234
 30
0.1937111584075774
 11
0.0672419552986127
 21
0.6064474659263261
 31
0.0468538943694893
  0
LINE
  5
B1
330
1F
100
AcDbEntity
  8
MODEL_HOLE_60
100
AcDbLine
 10
0.1350085103566049
 20
0.633990975038401
 30
0.1933242425676235
 11
0.1335455134003255
 21
0.5483708626864932
 31
0.0464669785295355
  0
LINE
  5
B2
330
1F
100
AcDbEntity
  8
MODEL_HOLE_60
100
AcDbLine
 10
0.0677094823809304
 20
0.6342529427610515
 30
0.1938074101325855
 11
0.0662464854246511
 21
0.5486328304091437
 31
0.0469501460944975
  0
LINE
  5
B3
330
1F
100
AcDbEntity
  8
MODEL_HOLE_60
100
AcDbLine
 10
0.0667121136594203
 20
0.5763134441353088
 30
0.1936895011945116
 11
0.0652491167031409
 21
0.490693331783401
 31
0.0468322371564236
  0
LINE
  5
B4
330
1F
100
AcDbEntity
  8
MODEL_HOLE_60
100
AcDbLine
 10
0.1340109575801288
 20
0.5760407048203007
 30
0.193187857987096
 11
0.1325479606238494
 21
0.4904205924683929
 31
0.046330593949008
  0
LINE
  5
B5
330
1F
100
AcDbEntity
  8
TIMBER_HOLE_AXES
100
AcDbLine
 10
0.1463764110404003
 20
1.068494335637945
 30
0.19303490562081
 11
0.1490237960820681
 21
0.9484428188742644
 31
0.0914632673734013
  0
LINE
  5
B6
330
1F
100
AcDbEntity
  8
TIMBER_HOLE_AXES
100
AcDbLine
 10
0.0769915906106325
 20
1.030829817550019
 30
0.0865835083991656
 11
0.0796798903793016
 21
1.145112195621918
 31
0.1932287564488724
  0
LINE
  5
B7
330
1F
100
AcDbEntity
  8
TIMBER_HOLE_AXES
100
AcDbLine
 10
0.150477894155652
 20
1.156669370049537
 30
0.1927813399524356
 11
0.1499639497784654
 21
1.027154428199058
 31
0.0819218809856289
  0
LINE
  5
B8
330
1F
100
AcDbEntity
  8
TIMBER_HOLE_AXES
100
AcDbLine
 10
0.081415405477881
 20
1.0970169373625
 30
0.0844762079513161
 11
0.0747861314784287
 21
1.222479302684173
 31
0.1929757946394573
  0
LINE
  5
B9
330
1F
100
AcDbEntity
  8
TIMBER_HOLE_AXES
100
AcDbLine
 10
0.1506617163146214
 20
1.229754310202178
 30
0.1924725786241195
 11
0.1515561872007766
 21
1.094653858681644
 31
0.0761959686918544
  0
LINE
  5
BA
330
1F
100
AcDbEntity
  8
TIMBER_HOLE_AXES
100
AcDbLine
 10
0.082446832478038
 20
1.267494912754884
 30
0.1061013914359729
 11
0.0804713310605204
 21
1.406618389295527
 31
0.1918785042417482
  0
LINE
  5
BB
330
1F
100
AcDbEntity
  8
TIMBER_HOLE_AXES
100
AcDbLine
 10
0.1537224705861903
 20
1.255279312424497
 30
0.1004754238627787
 11
0.1473287428206239
 21
1.411896638618238
 31
0.1918033080530021
  0
LINE
  5
BC
330
1F
100
AcDbEntity
  8
TIMBER_HOLE_AXES
100
AcDbLine
 10
0.069321370424822
 20
0.6324691327772634
 30
0.1938090846499351
 11
0.0656470441423501
 21
0.5445300137656535
 31
0.0436567964382852
  0
LINE
  5
BD
330
1F
100
AcDbEntity
  8
TIMBER_HOLE_AXES
100
AcDbLine
 10
0.1310815186482245
 20
0.5548273259090912
 30
0.0405309772112003
 11
0.1326544924696341
 21
0.6433697886123024
 31
0.193343423045107
  0
LINE
  5
BE
330
1F
100
AcDbEntity
  8
TIMBER_HOLE_AXES
100
AcDbLine
 10
0.0661103330040435
 20
0.6056794363637401
 30
0.0416440055057496
 11
0.0698304500351855
 21
0.6947144836591104
 31
0.1936675444346218
  0
LINE
  5
BF
330
1F
100
AcDbEntity
  8
TIMBER_HOLE_AXES
100
AcDbLine
 10
0.131961244570762
 20
0.6071418853413242
 30
0.0457454345674001
 11
0.1334805130449349
 21
0.6926612820277747
 31
0.193340472867856
  0
LINE
  5
C0
330
1F
100
AcDbEntity
  8
TIMBER_HOLE_AXES
100
AcDbLine
 10
0.0736239017868908
 20
0.8038344980590058
 30
0.1934080540133579
 11
0.0674715906728059
 21
0.6997855817912573
 31
0.0706642316664592
  0
LINE
  5
C1
330
1F
100
AcDbEntity
  8
TIMBER_HOLE_AXES
100
AcDbLine
 10
0.1420274724120049
 20
0.6941880396858053
 30
0.0576636531945733
 11
0.1406752446897807
 21
0.8048554798868466
 31
0.1931299431795019
  0
LINE
  5
C2
330
1F
100
AcDbEntity
  8
TIMBER_HOLE_AXES
100
AcDbLine
 10
0.0721701946251251
 20
0.8672159621530522
 30
0.1934055095392558
 11
0.0760666054275728
 21
0.7535189277096972
 31
0.0567721770347132
  0
LINE
  5
C3
330
1F
100
AcDbEntity
  8
TIMBER_HOLE_AXES
100
AcDbLine
 10
0.1406637404004606
 20
0.8646125479618441
 30
0.1928794249075021
 11
0.143059741776706
 21
0.7541334687697745
 31
0.0583488022263627
  0
LINE
  5
C4
330
1F
100
AcDbEntity
  8
TIMBER_HOLE_AXES
100
AcDbLine
 10
0.073187914153788
 20
0.9363088029468685
 30
0.1934550087093424
 11
0.07434294558315
 21
0.8240452982422184
 31
0.053439747391786
  0
LINE
  5
C5
330
1F
100
AcDbEntity
  8
TIMBER_HOLE_AXES
100
AcDbLine
 10
0.1438903312347136
 20
0.9339650899603225
 30
0.1930385834085075
 11
0.1461389041695759
 21
0.8236489667640221
 31
0.0598141521570931
  0
LINE
  5
C6
330
1F
100
AcDbEntity
  8
TIMBER_HOLE_AXES
100
AcDbLine
 10
0.0779607411013986
 20
1.079684340500853
 30
0.1934460780762055
 11
0.0814001544863122
 21
0.9618973388787158
 31
0.0906544907410251
  0
LINE
  5
C7
330
1F
100
AcDbEntity
  8
TIMBER_HOLE_AXES
100
AcDbLine
 10
0.120153912368072
 20
0.0299125914720442
 30
0.0369825817413747
 11
0.1205211664091367
 21
0.0264283676051988
 31
0.1938222877641871
  0
LINE
  5
C8
330
1F
100
AcDbEntity
  8
TIMBER_HOLE_AXES
100
AcDbLine
 10
0.0601942759722908
 20
0.0346278305046219
 30
0.0374177984590375
 11
0.0605621704336271
 21
0.0311375308228214
 31
0.1945310027034109
  0
LINE
  5
C9
330
1F
100
AcDbEntity
  8
TIMBER_HOLE_AXES
100
AcDbLine
 10
0.1209607714101258
 20
0.0814653789679891
 30
0.0354932625086283
 11
0.1213321830881479
 21
0.0779417106395552
 31
0.194108531180786
  0
LINE
  5
CA
330
1F
100
AcDbEntity
  8
TIMBER_HOLE_AXES
100
AcDbLine
 10
0.0621208815249422
 20
0.0799659721051853
 30
0.0319594841175134
 11
0.0606353637731466
 21
0.0822979052501189
 31
0.1946414521171739
  0
LINE
  5
CB
330
1F
100
AcDbEntity
  8
TIMBER_HOLE_AXES
100
AcDbLine
 10
0.1191791549513251
 20
0.1204068338830382
 30
0.0500722229912744
 11
0.1237278437072772
 21
0.123353083043531
 31
0.1940710255852109
  0
LINE
  5
CC
330
1F
100
AcDbEntity
  8
TIMBER_HOLE_AXES
100
AcDbLine
 10
0.0641224388110494
 20
0.1337354748192912
 30
0.0544598951600761
 11
0.0644141112699831
 21
0.1333037539739284
 31
0.1946586669592891
  0
LINE
  5
CD
330
1F
100
AcDbEntity
  8
TIMBER_HOLE_AXES
100
AcDbLine
 10
0.1281679081573862
 20
0.1736006476904262
 30
0.0226841194247282
 11
0.1281396327989081
 21
0.2066332769946602
 31
0.1942209543054164
  0
LINE
  5
CE
330
1F
100
AcDbEntity
  8
TIMBER_HOLE_AXES
100
AcDbLine
 10
0.0591624246409616
 20
0.2052583579719229
 30
0.1945966430050811
 11
0.0604611126841116
 21
0.1724184008122212
 31
0.0234743147665012
  0
LINE
  5
CF
330
1F
100
AcDbEntity
  8
TIMBER_HOLE_AXES
100
AcDbLine
 10
0.1291125099056524
 20
0.2555633403734507
 30
0.1941429186787331
 11
0.13083178900451
 21
0.2232485074646249
 31
0.0147876471494575
  0
LINE
  5
D0
330
1F
100
AcDbEntity
  8
TIMBER_HOLE_AXES
100
AcDbLine
 10
0.0636804159493723
 20
0.2519030554602146
 30
0.1945224754636976
 11
0.0647371846689319
 21
0.2272506723444057
 31
0.0463308563306509
  0
LINE
  5
D1
330
1F
100
AcDbEntity
  8
TIMBER_HOLE_AXES
100
AcDbLine
 10
0.1320200247541102
 20
0.2813168814244378
 30
0.0541064044713042
 11
0.1299461868821802
 21
0.3074699008859536
 31
0.1939724680282541
  0
LINE
  5
D2
330
1F
100
AcDbEntity
  8
TIMBER_HOLE_AXES
100
AcDbLine
 10
0.0648876002999169
 20
0.285049123684944
 30
0.0735503439096984
 11
0.066429235689747
 21
0.3028642856939943
 31
0.194387756693183
  0
LINE
  5
D3
330
1F
100
AcDbEntity
  8
TIMBER_HOLE_AXES
100
AcDbLine
 10
0.126919568008279
 20
0.3892842444677438
 30
0.1937435862069131
 11
0.1269571079573591
 21
0.3296764389132498
 31
0.0385967723617285
  0
LINE
  5
D4
330
1F
100
AcDbEntity
  8
TIMBER_HOLE_AXES
100
AcDbLine
 10
0.0628329087176508
 20
0.439727438330932
 30
0.1941087365094727
 11
0.0598811297715441
 21
0.3796691784486406
 31
0.0290611535613122
  0
LINE
  5
D5
330
1F
100
AcDbEntity
  8
TIMBER_HOLE_AXES
100
AcDbLine
 10
0.061704336946406
 20
0.3491459658259242
 30
0.0803693055501644
 11
0.0640907559603318
 21
0.3884086191334823
 31
0.1941466245331367
  0
LINE
  5
D6
330
1F
100
AcDbEntity
  8
TIMBER_HOLE_AXES
100
AcDbLine
 10
0.127129342962561
 20
0.441648343439077
 30
0.1936267766466726
 11
0.1266753932298209
 21
0.3898628976148153
 31
0.0449146863170529
  0
LINE
  5
D7
330
1F
100
AcDbEntity
  8
TIMBER_HOLE_AXES
100
AcDbLine
 10
0.060450146083879
 20
0.4371585215142666
 30
0.0442602972326193
 11
0.0634732126910843
 21
0.4916989769573323
 31
0.1940561404545821
  0
LINE
  5
D8
330
1F
100
AcDbEntity
  8
TIMBER_HOLE_AXES
100
AcDbLine
 10
0.1292783304922419
 20
0.4440842766298907
 30
0.0490531581999402
 11
0.1305013128370861
 21
0.4949682744255437
 31
0.1934636333278903
  0
LINE
  5
D9
330
1F
100
AcDbEntity
  8
TIMBER_HOLE_AXES
100
AcDbLine
 10
0.0553421041643155
 20
0.4925020349723663
 30
0.0509126624261854
 11
0.0586860081112038
 21
0.5772662801524877
 31
0.1938532226104223
  0
LINE
  5
DA
330
1F
100
AcDbEntity
  8
TIMBER_HOLE_AXES
100
AcDbLine
 10
0.1317645927737957
 20
0.5812105060812787
 30
0.1931957113334094
 11
0.1303212187075841
 21
0.4999631943429925
 31
0.0529737201541773
  0
LINE
  5
DB
330
1F
100
AcDbEntity
  8
TIMBER_HOLE_AXES
100
AcDbLine
 10
0.7156206945930297
 20
0.0227149446784151
 30
0.0065967860637239
 11
0.7224411474720847
 21
0.0235864860085877
 31
0.1127536678854908
  0
LINE
  5
DC
330
1F
100
AcDbEntity
  8
TIMBER_HOLE_AXES
100
AcDbLine
 10
0.7177855747435604
 20
0.0759289351329029
 30
0.0130031211508522
 11
0.7246177375971548
 21
0.0751925686535928
 31
0.1127922922115365
  0
LINE
  5
DD
330
1F
100
AcDbEntity
  8
TIMBER_HOLE_AXES
100
AcDbLine
 10
0.7162348229903923
 20
0.1272995927992132
 30
0.0190285713921624
 11
0.7226730981203966
 21
0.1267386925680346
 31
0.1126782550581124
  0
LINE
  5
DE
330
1F
100
AcDbEntity
  8
TIMBER_HOLE_AXES
100
AcDbLine
 10
0.7118155220430342
 20
0.1710448098399664
 30
0.0000628370872274
 11
0.722237188738946
 21
0.191572314307374
 31
0.1126522885554017
  0
LINE
  5
DF
330
1F
100
AcDbEntity
  8
TIMBER_HOLE_AXES
100
AcDbLine
 10
0.7113311693741178
 20
0.2236111701954152
 30
0.0010062429187321
 11
0.7217361625259189
 21
0.2416456498084724
 31
0.1124150005876774
  0
LINE
  5
E0
330
1F
100
AcDbEntity
  8
TIMBER_HOLE_AXES
100
AcDbLine
 10
0.7155891424986276
 20
0.276256908147232
 30
0.014218647575592
 11
0.7233613896988254
 21
0.292765133299151
 31
0.1125238535639451
  0
LINE
  5
E1
330
1F
100
AcDbEntity
  8
TIMBER_HOLE_AXES
100
AcDbLine
 10
0.7093661565613241
 20
0.3255320836678724
 30
0.0148738269186053
 11
0.7186272451268598
 21
0.3626340446727362
 31
0.1128303936729091
  0
LINE
  5
E2
330
1F
100
AcDbEntity
  8
TIMBER_HOLE_AXES
100
AcDbLine
 10
0.7141687231152423
 20
0.3747914150961738
 30
0.0145628377678653
 11
0.7229558093134023
 21
0.4106392381578672
 31
0.1123365983419342
  0
LINE
  5
E3
330
1F
100
AcDbEntity
  8
TIMBER_HOLE_AXES
100
AcDbLine
 10
0.7167789189204976
 20
0.4350502696286085
 30
0.0241134626402609
 11
0.7228005309120715
 21
0.467086131405905
 31
0.1125462262854276
  0
LINE
  5
E4
330
1F
100
AcDbEntity
  8
TIMBER_HOLE_AXES
100
AcDbLine
 10
0.7150160225109801
 20
0.4913974415220937
 30
0.0308951713117797
 11
0.7215739516467417
 21
0.5397911326433057
 31
0.1123664485079499
  0
LINE
  5
E5
330
1F
100
AcDbEntity
  8
TIMBER_HOLE_AXES
100
AcDbLine
 10
0.7128000282280471
 20
0.5459800644507674
 30
0.0259136920781183
 11
0.7201426738388612
 21
0.5955392388291927
 31
0.112113698302543
  0
LINE
  5
E6
330
1F
100
AcDbEntity
  8
TIMBER_HOLE_AXES
100
AcDbLine
 10
0.7133512445775043
 20
0.6038406054826998
 30
0.0299799258610791
 11
0.7217107015707898
 21
0.6536764814801573
 31
0.1118449592341504
  0
LINE
  5
E7
330
1F
100
AcDbEntity
  8
TIMBER_HOLE_AXES
100
AcDbLine
 10
0.7185635343742405
 20
0.7217068597412488
 30
0.029795428968398
 11
0.7252969211362985
 21
0.7901589170830655
 31
0.1115061604672841
  0
LINE
  5
E8
330
1F
100
AcDbEntity
  8
TIMBER_HOLE_AXES
100
AcDbLine
 10
0.656432429259429
 20
0.0212439806268203
 30
0.003400101518605
 11
0.660725061976104
 21
0.0230377379784909
 31
0.1146619705454746
  0
LINE
  5
E9
330
1F
100
AcDbEntity
  8
TIMBER_HOLE_AXES
100
AcDbLine
 10
0.6589766049769423
 20
0.0749846213090053
 30
0.0106259621983343
 11
0.6670568887194701
 21
0.0732269753973229
 31
0.1143930771347257
  0
LINE
  5
EA
330
1F
100
AcDbEntity
  8
TIMBER_HOLE_AXES
100
AcDbLine
 10
0.6546970571602748
 20
0.1260840133338965
 30
0.0005220679290696
 11
0.6646467693944094
 21
0.1254034068773747
 31
0.1142854094797702
  0
LINE
  5
EB
330
1F
100
AcDbEntity
  8
TIMBER_HOLE_AXES
100
AcDbLine
 10
0.6569086964323807
 20
0.1721392901029302
 30
-0.0016594710886936
 11
0.6648545768858622
 21
0.1920101226745642
 31
0.1141739862400117
  0
LINE
  5
EC
330
1F
100
AcDbEntity
  8
TIMBER_HOLE_AXES
100
AcDbLine
 10
0.6543487641550234
 20
0.2228505786494094
 30
-0.0011244756125248
 11
0.6625636985372982
 21
0.2437058457235063
 31
0.114253558794682
  0
LINE
  5
ED
330
1F
100
AcDbEntity
  8
TIMBER_HOLE_AXES
100
AcDbLine
 10
0.6541287611810018
 20
0.2816611287124388
 30
0.0165888973482011
 11
0.6638499802965985
 21
0.2964049988801836
 31
0.1140759419730318
  0
LINE
  5
EE
330
1F
100
AcDbEntity
  8
TIMBER_HOLE_AXES
100
AcDbLine
 10
0.6553391137842395
 20
0.3281934470292385
 30
0.0215748841653263
 11
0.6645253918134171
 21
0.3585965512516011
 31
0.114202528553541
  0
LINE
  5
EF
330
1F
100
AcDbEntity
  8
TIMBER_HOLE_AXES
100
AcDbLine
 10
0.6597324503980939
 20
0.3841486629805462
 30
0.0362027702223488
 11
0.6676468765242238
 21
0.4135693103656462
 31
0.1140652002375046
  0
LINE
  5
F0
330
1F
100
AcDbEntity
  8
TIMBER_HOLE_AXES
100
AcDbLine
 10
0.6609978943945194
 20
0.4411048487601454
 30
0.0290643189323612
 11
0.6698290006660081
 21
0.4678916260860154
 31
0.1137267770218815
  0
LINE
  5
F1
330
1F
100
AcDbEntity
  8
TIMBER_HOLE_AXES
100
AcDbLine
 10
0.6620029231154287
 20
0.4881180747688194
 30
0.0168438512269732
 11
0.672252254587395
 21
0.532047004994617
 31
0.1135355350583748
  0
LINE
  5
F2
330
1F
100
AcDbEntity
  8
TIMBER_HOLE_AXES
100
AcDbLine
 10
0.6615876467664563
 20
0.5407693023593408
 30
0.0200533209975668
 11
0.6701654918692062
 21
0.5922911240182255
 31
0.1131964276335192
  0
LINE
  5
F3
330
1F
100
AcDbEntity
  8
TIMBER_HOLE_AXES
100
AcDbLine
 10
0.6618243900618332
 20
0.6128547092311932
 30
0.0191442273394357
 11
0.6682205368178464
 21
0.6634913155845295
 31
0.1131991072815627
  0
LINE
  5
F4
330
1F
100
AcDbEntity
  8
TIMBER_HOLE_AXES
100
AcDbLine
 10
0.7207840934457961
 20
0.787743090711704
 30
0.0285161236323296
 11
0.7266321187454436
 21
0.855658146497182
 31
0.1106572626200082
  0
LINE
  5
F5
330
1F
100
AcDbEntity
  8
TIMBER_HOLE_AXES
100
AcDbLine
 10
0.6662126440564764
 20
0.7877188823230357
 30
0.0257963791623514
 11
0.6771531977959953
 21
0.8543731231774263
 31
0.1118236062239149
  0
LINE
  5
F6
330
1F
100
AcDbEntity
  8
TIMBER_HOLE_AXES
100
AcDbLine
 10
0.7176718349538742
 20
0.8547373831545394
 30
0.0296713116196685
 11
0.7265371135477263
 21
0.9494170974592561
 31
0.1104372175859216
  0
LINE
  5
F7
330
1F
100
AcDbEntity
  8
TIMBER_HOLE_AXES
100
AcDbLine
 10
0.6662054207332648
 20
0.86639711308659
 30
0.047253452563474
 11
0.6755161192781252
 21
0.9415139818981586
 31
0.1113487521354818
  0
LINE
  5
F8
330
1F
100
AcDbEntity
  8
TIMBER_HOLE_AXES
100
AcDbLine
 10
0.7188909642744452
 20
0.9353099389809085
 30
0.0332449260092543
 11
0.7257726960398054
 21
1.024417717496021
 31
0.1099322741701318
  0
LINE
  5
F9
330
1F
100
AcDbEntity
  8
TIMBER_HOLE_AXES
100
AcDbLine
 10
0.6764774440359371
 20
0.9247078453730764
 30
0.0222747188912615
 11
0.67470134742711
 21
1.028075932428812
 31
0.1110109579943613
  0
LINE
  5
FA
330
1F
100
AcDbEntity
  8
TIMBER_HOLE_AXES
100
AcDbLine
 10
0.7239776973179186
 20
1.010178427129707
 30
0.0390842637784271
 11
0.726445931729363
 21
1.093421002526042
 31
0.109619994688478
  0
LINE
  5
FB
330
1F
100
AcDbEntity
  8
TIMBER_HOLE_AXES
100
AcDbLine
 10
0.6706823565744537
 20
0.9980723225474191
 30
0.0308414628406002
 11
0.6800192777030545
 21
1.095010115405849
 31
0.1105225630665935
  0
LINE
  5
FC
330
1F
100
AcDbEntity
  8
TIMBER_HOLE_AXES
100
AcDbLine
 10
0.7163164428488216
 20
0.6626075496763896
 30
0.0269310990473462
 11
0.7145676443181941
 21
0.730820642762513
 31
0.1117309082113292
  0
LINE
  5
FD
330
1F
100
AcDbEntity
  8
TIMBER_HOLE_AXES
100
AcDbLine
 10
0.6619840444134759
 20
0.6423313465141066
 30
0.007544058930359
 11
0.6600746400582711
 21
0.7238603471555156
 31
0.1136429806077934
  0
LINE
  5
FE
330
1F
100
AcDbEntity
  8
TIMBER_HOLE_AXES
100
AcDbLine
 10
0.7282822674461329
 20
1.080606618459048
 30
0.0266309404287302
 11
0.7272456278941877
 21
1.214803103375319
 31
0.1096276622316453
  0
LINE
  5
FF
330
1F
100
AcDbEntity
  8
TIMBER_HOLE_AXES
100
AcDbLine
 10
0.6841913584029804
 20
1.078128066567748
 30
0.0259367472548014
 11
0.6789823099890344
 21
1.219867870635508
 31
0.110307113068599
  0
LINE
  5
100
330
1F
100
AcDbEntity
  8
TIMBER_HOLE_AXES
100
AcDbLine
 10
0.6748508272019969
 20
1.171816990032095
 30
0.0230030832708475
 11
0.6784567595403792
 21
1.317289646049974
 31
0.1100695176029297
  0
LINE
  5
101
330
1F
100
AcDbEntity
  8
TIMBER_HOLE_AXES
100
AcDbLine
 10
0.7345963155417561
 20
1.193405590574646
 30
0.0329665313042576
 11
0.739586431033366
 21
1.328337772382168
 31
0.1090442525066211
  0
LINE
  5
102
330
1F
100
AcDbEntity
  8
MODEL_HOLE_90
100
AcDbLine
 10
0.6547080162404408
 20
0.1316106424508388
 30
0.020809031138054
 11
0.659850099995444
 21
0.1317815374347387
 31
0.1145276303131675
  0
LINE
  5
103
330
1F
100
AcDbEntity
  8
MODEL_HOLE_90
100
AcDbLine
 10
0.6538623441943154
 20
0.0816179838317949
 30
0.0209465919978379
 11
0.6590100850551797
 21
0.0817890668272221
 31
0.1147682964629328
  0
LINE
  5
104
330
1F
100
AcDbEntity
  8
MODEL_HOLE_90
100
AcDbLine
 10
0.65301667214819
 20
0.0316253252127528
 30
0.0210841528576219
 11
0.6581527761185373
 21
0.031796021461034
 31
0.1146937656629757
  0
LINE
  5
105
330
1F
100
AcDbEntity
  8
MODEL_HOLE_80
100
AcDbLine
 10
0.6571711302806595
 20
0.2831078628169031
 30
0.0205504311723547
 11
0.6627870511076988
 21
0.2997986524755626
 31
0.1140835488938665
  0
LINE
  5
106
330
1F
100
AcDbEntity
  8
MODEL_HOLE_80
100
AcDbLine
 10
0.6556990602500625
 20
0.2323581733304857
 30
0.020723741214624
 11
0.6613162792294474
 21
0.2490528211610153
 31
0.1142784796533762
  0
LINE
  5
107
330
1F
100
AcDbEntity
  8
MODEL_HOLE_80
100
AcDbLine
 10
0.6542269902194655
 20
0.1816084838440719
 30
0.0208970512568937
 11
0.6598395739516305
 21
0.1982893554945697
 31
0.1143745896892378
  0
LINE
  5
108
330
1F
100
AcDbEntity
  8
MODEL_HOLE_70
100
AcDbLine
 10
0.6597557558766884
 20
0.4396069976723813
 30
0.0205890654726053
 11
0.6658088662685642
 21
0.4738364983282065
 31
0.1139469666893349
  0
LINE
  5
109
330
1F
100
AcDbEntity
  8
MODEL_HOLE_70
100
AcDbLine
 10
0.6582798605593418
 20
0.3863759082538956
 30
0.0206499890444682
 11
0.6643413260238513
 21
0.4206526556879321
 31
0.1141367516225547
  0
LINE
  5
10A
330
1F
100
AcDbEntity
  8
MODEL_HOLE_70
100
AcDbLine
 10
0.6568039652419952
 20
0.3331448188354116
 30
0.0207109126163311
 11
0.6628648817849299
 21
0.3674184621939981
 31
0.1141892091062841
  0
LINE
  5
10B
330
1F
100
AcDbEntity
  8
MODEL_HOLE_60
100
AcDbLine
 10
0.6626216526604618
 20
0.605028179013005
 30
0.020017914085611
 11
0.6692318187802191
 21
0.659135510471968
 31
0.113155370730638
  0
LINE
  5
10C
330
1F
100
AcDbEntity
  8
MODEL_HOLE_60
100
AcDbLine
 10
0.661027028859491
 20
0.5473154996171602
 30
0.0202106452707317
 11
0.667621691609384
 21
0.6012959286720359
 31
0.1131296589277153
  0
LINE
  5
10D
330
1F
100
AcDbEntity
  8
MODEL_HOLE_60
100
AcDbLine
 10
0.6594326392795238
 20
0.4896028137088763
 30
0.0204033636166645
 11
0.6660569733603299
 21
0.5438261166200892
 31
0.1137404472958614
  0
LINE
  5
10E
330
1F
100
AcDbEntity
  8
MODEL_HOLE_50
100
AcDbLine
 10
0.6622793826790594
 20
0.6552381643253594
 30
0.0203153807248624
 11
0.6693486578408412
 21
0.7335671861012004
 31
0.1131015856809737
  0
LINE
  5
10F
330
1F
100
AcDbEntity
  8
MODEL_HOLE_50
100
AcDbLine
 10
0.6639215591721581
 20
0.7204388935778117
 30
0.0201447195760769
 11
0.6709661605866066
 21
0.7984945251618774
 31
0.1126070747279669
  0
LINE
  5
110
330
1F
100
AcDbEntity
  8
MODEL_HOLE_50
100
AcDbLine
 10
0.6655638344494554
 20
0.7856396203294168
 30
0.0199740530104621
 11
0.6725730503273222
 21
0.8633031728952034
 31
0.1119719631415369
  0
LINE
  5
111
330
1F
100
AcDbEntity
  8
MODEL_HOLE_90
100
AcDbLine
 10
0.7119282906662474
 20
0.1320426619182016
 30
0.02082468071727
 11
0.7169751949088599
 21
0.1322103936511679
 31
0.1128085569675139
  0
LINE
  5
112
330
1F
100
AcDbEntity
  8
MODEL_HOLE_90
100
AcDbLine
 10
0.7110826186201229
 20
0.0820500032991595
 30
0.0209622415770538
 11
0.7161272013004374
 21
0.0822176578759825
 31
0.1129038054930584
  0
LINE
  5
113
330
1F
100
AcDbEntity
  8
MODEL_HOLE_90
100
AcDbLine
 10
0.7102369465739975
 20
0.0320573446801175
 30
0.0210998024368378
 11
0.7152813194529304
 21
0.0322249922842821
 31
0.1130375425544369
  0
LINE
  5
114
330
1F
100
AcDbEntity
  8
MODEL_HOLE_80
100
AcDbLine
 10
0.714391404706467
 20
0.283539882284266
 30
0.0205660807515705
 11
0.7199223826570278
 21
0.2999782175853996
 31
0.1126844755255998
  0
LINE
  5
115
330
1F
100
AcDbEntity
  8
MODEL_HOLE_80
100
AcDbLine
 10
0.71291933467587
 20
0.2327901927978486
 30
0.0207393907938401
 11
0.7184209705999991
 21
0.2491413221702669
 31
0.1123690943457329
  0
LINE
  5
116
330
1F
100
AcDbEntity
  8
MODEL_HOLE_80
100
AcDbLine
 10
0.7114472646452721
 20
0.182040503311433
 30
0.0209127008361096
 11
0.7169652861686848
 21
0.198440331481339
 31
0.1128153064166986
  0
LINE
  5
117
330
1F
100
AcDbEntity
  8
MODEL_HOLE_70
100
AcDbLine
 10
0.7169760303024959
 20
0.4400390171397424
 30
0.0206047150518212
 11
0.7229345187933478
 21
0.473733444054387
 31
0.1125032505017222
  0
LINE
  5
118
330
1F
100
AcDbEntity
  8
MODEL_HOLE_70
100
AcDbLine
 10
0.7155001349851502
 20
0.386807927721262
 30
0.0206656386236843
 11
0.7214417474234511
 21
0.4204069228967763
 31
0.1123038925414532
  0
LINE
  5
119
330
1F
100
AcDbEntity
  8
MODEL_HOLE_70
100
AcDbLine
 10
0.7140242396678018
 20
0.3335768383027745
 30
0.0207265621955469
 11
0.719992271202829
 21
0.3673252298101194
 31
0.1127722812449154
  0
LINE
  5
11A
330
1F
100
AcDbEntity
  8
MODEL_HOLE_60
100
AcDbLine
 10
0.7198419270862693
 20
0.6054601984803697
 30
0.020033563664827
 11
0.7263542577648789
 21
0.6587667006490016
 31
0.1117925157468471
  0
LINE
  5
11B
330
1F
100
AcDbEntity
  8
MODEL_HOLE_60
100
AcDbLine
 10
0.7182473032852994
 20
0.5477475190845214
 30
0.0202262948499477
 11
0.7247657503991918
 21
0.6011040871645418
 31
0.1120714277049901
  0
LINE
  5
11C
330
1F
100
AcDbEntity
  8
MODEL_HOLE_60
100
AcDbLine
 10
0.7166529137053312
 20
0.4900348331762373
 30
0.0204190131958804
 11
0.7231728488169611
 21
0.5434035812204666
 31
0.1122851119876619
  0
LINE
  5
11D
330
1F
100
AcDbEntity
  8
MODEL_HOLE_50
100
AcDbLine
 10
0.7194996571048669
 20
0.6556701837927206
 30
0.0203310303040783
 11
0.7264435311347408
 21
0.7326097352526999
 31
0.1114713104856289
  0
LINE
  5
11E
330
1F
100
AcDbEntity
  8
MODEL_HOLE_50
100
AcDbLine
 10
0.7211418335979647
 20
0.7208709130451765
 30
0.0201603691552928
 11
0.7280765658080681
 21
0.7977091712631397
 31
0.1111806604067989
  0
LINE
  5
11F
330
1F
100
AcDbEntity
  8
MODEL_HOLE_50
100
AcDbLine
 10
0.722784108875262
 20
0.7860716397967797
 30
0.0199897025896782
 11
0.7296826154441853
 21
0.8625085104648269
 31
0.1105345222135671
  0
LINE
  5
120
330
1F
100
AcDbEntity
  8
MODEL_HOLE_40
100
AcDbLine
 10
0.6658890024868627
 20
0.8457869475582952
 30
0.0200822088698812
 11
0.6735768115244691
 21
0.9552786745520243
 31
0.1113608073599443
  0
LINE
  5
121
330
1F
100
AcDbEntity
  8
MODEL_HOLE_40
100
AcDbLine
 10
0.6677791111516345
 20
0.9235040343542409
 30
0.0197984538669255
 11
0.6754531089863787
 21
1.032799058692393
 31
0.1109130697145235
  0
LINE
  5
122
330
1F
100
AcDbEntity
  8
MODEL_HOLE_40
100
AcDbLine
 10
0.6696730788894008
 20
1.001221147657536
 30
0.0195528205873234
 11
0.6773333744218868
 21
1.110321020330167
 31
0.1105047467869381
  0
LINE
  5
123
330
1F
100
AcDbEntity
  8
MODEL_HOLE_40
100
AcDbLine
 10
0.723109276912671
 20
0.846218967025658
 30
0.020097858449097
 11
0.7307179640017671
 21
0.9545838191525604
 31
0.1104370292641945
  0
LINE
  5
124
330
1F
100
AcDbEntity
  8
MODEL_HOLE_40
100
AcDbLine
 10
0.7249993855774419
 20
0.9239360538216038
 30
0.0198141034461414
 11
0.7325955211905533
 21
1.03212214464277
 31
0.1100042485594808
  0
LINE
  5
125
330
1F
100
AcDbEntity
  8
MODEL_HOLE_40
100
AcDbLine
 10
0.7268933533152082
 20
1.001653167124899
 30
0.0195684701665394
 11
0.7344750126870081
 21
1.109633083644149
 31
0.1095867365284847
  0
LINE
  5
126
330
1F
100
AcDbEntity
  8
MODEL_HOLE_30
100
AcDbLine
 10
0.671054433488059
 20
1.071488435781939
 30
0.0203784753010783
 11
0.6787779862881105
 21
1.228437256136678
 31
0.1103385186307112
  0
LINE
  5
127
330
1F
100
AcDbEntity
  8
MODEL_HOLE_30
100
AcDbLine
 10
0.6728263940135943
 20
1.171665706011567
 30
0.0202101881857087
 11
0.680509644355896
 21
1.327795547929186
 31
0.1097008088365157
  0
LINE
  5
128
330
1F
100
AcDbEntity
  8
MODEL_HOLE_30
100
AcDbLine
 10
0.6746068004547285
 20
1.271975967062382
 30
0.0201528029931963
 11
0.6817904207214354
 21
1.417952922994948
 31
0.1038239847908029
  0
LINE
  5
129
330
1F
100
AcDbEntity
  8
MODEL_HOLE_30
100
AcDbLine
 10
0.7282747079138656
 20
1.071920455249301
 30
0.0203941248802943
 11
0.7359349537622184
 21
1.22758282730146
 31
0.1096168008007295
  0
LINE
  5
12A
330
1F
100
AcDbEntity
  8
MODEL_HOLE_30
100
AcDbLine
 10
0.7300466684394009
 20
1.172097725478932
 30
0.0202258377649244
 11
0.7376762582121024
 21
1.327137141356032
 31
0.1090914471946785
  0
LINE
  5
12B
330
1F
100
AcDbEntity
  8
MODEL_HOLE_30
100
AcDbLine
 10
0.7318270748805351
 20
1.272407986529744
 30
0.0201684525724121
 11
0.7389825996217865
 21
1.417814018731794
 31
0.1035123918751779
  0
LINE
  5
12C
330
1F
100
AcDbEntity
  8
TIMBER_HOLE_AXES
100
AcDbLine
 10
0.665929673623399
 20
0.7055231525186161
 30
0.0185088581238979
 11
0.6734508222384843
 21
0.7932984576510691
 31
0.1126095945272234
  0
LINE
  5
12D
330
1F
100
AcDbEntity
  8
TIMBER_HOLE_AXES
100
AcDbLine
 10
1.42184523891629
 20
1.124347834886495
 30
0.084247723892712
 11
1.424576535536676
 21
1.25067094319124
 31
0.1930312563892589
  0
LINE
  5
12E
330
1F
100
AcDbEntity
  8
TIMBER_HOLE_AXES
100
AcDbLine
 10
1.42264243881425
 20
1.278305523160738
 30
0.1145722758097796
 11
1.421733491058305
 21
1.412343764903994
 31
0.1933919480788144
  0
LINE
  5
12F
330
1F
100
AcDbEntity
  8
TIMBER_HOLE_AXES
100
AcDbLine
 10
1.426878786375726
 20
1.364594744189688
 30
0.1125851056013469
 11
1.426239563301437
 21
1.504573563536304
 31
0.1930984293880496
  0
LINE
  5
130
330
1F
100
AcDbEntity
  8
TIMBER_HOLE_AXES
100
AcDbLine
 10
1.425781886590775
 20
1.561559476820559
 30
0.1070014649557222
 11
1.425153033317522
 21
1.707509945997339
 31
0.192739214116227
  0
LINE
  5
131
330
1F
100
AcDbEntity
  8
TIMBER_HOLE_AXES
100
AcDbLine
 10
1.420511757469531
 20
1.444118003497744
 30
0.0988736172437421
 11
1.418653237054685
 21
1.607571595148993
 31
0.1931675919197273
  0
LINE
  5
132
330
1F
100
AcDbEntity
  8
TIMBER_HOLE_AXES
100
AcDbLine
 10
1.418895837512081
 20
0.9676931513745588
 30
0.0812782609500006
 11
1.421706320112916
 21
1.097678629818795
 31
0.1932156547347181
  0
LINE
  5
133
330
1F
100
AcDbEntity
  8
TIMBER_HOLE_AXES
100
AcDbLine
 10
1.419721135806177
 20
1.044683510568047
 30
0.0794469065381779
 11
1.422854847263337
 21
1.17652144016656
 31
0.193208772764484
  0
LINE
  5
134
330
1F
100
AcDbEntity
  8
TIMBER_HOLE_AXES
100
AcDbLine
 10
1.425196498908047
 20
0.540599261551014
 30
0.0387470907180214
 11
1.428651190723774
 21
0.6333649526241238
 31
0.1932575679071927
  0
LINE
  5
135
330
1F
100
AcDbEntity
  8
TIMBER_HOLE_AXES
100
AcDbLine
 10
1.428977974449314
 20
0.5859600793501842
 30
0.0383864122209739
 11
1.428645475927324
 21
0.6787849195728768
 31
0.1932748594933693
  0
LINE
  5
136
330
1F
100
AcDbEntity
  8
TIMBER_HOLE_AXES
100
AcDbLine
 10
1.427366055931178
 20
0.6577281182619839
 30
0.0400728680822188
 11
1.427544184427117
 21
0.7512417186350415
 31
0.1933046200736134
  0
LINE
  5
137
330
1F
100
AcDbEntity
  8
TIMBER_HOLE_AXES
100
AcDbLine
 10
1.426245051239033
 20
0.7182044671931358
 30
0.0472646221129377
 11
1.423158533028931
 21
0.8376648241783675
 31
0.1933973306511475
  0
LINE
  5
138
330
1F
100
AcDbEntity
  8
TIMBER_HOLE_AXES
100
AcDbLine
 10
1.427906473064358
 20
0.7985088659398789
 30
0.0715763781664329
 11
1.425264817764881
 21
0.8962695839847274
 31
0.1873680324227718
  0
LINE
  5
139
330
1F
100
AcDbEntity
  8
TIMBER_HOLE_AXES
100
AcDbLine
 10
1.426506058729741
 20
0.8617575575565137
 30
0.0667378252943489
 11
1.424474873305902
 21
0.9751939460649819
 31
0.1932915368759288
  0
LINE
  5
13A
330
1F
100
AcDbEntity
  8
TIMBER_HOLE_AXES
100
AcDbLine
 10
1.430567887756923
 20
0.0738833105516914
 30
0.1932339325545979
 11
1.433101123572526
 21
0.0761373055070234
 31
0.0497029824495132
  0
LINE
  5
13B
330
1F
100
AcDbEntity
  8
TIMBER_HOLE_AXES
100
AcDbLine
 10
1.428470249451374
 20
0.1300952088225094
 30
0.0492084300736903
 11
1.427739589778077
 21
0.1254429542498086
 31
0.193312321641372
  0
LINE
  5
13C
330
1F
100
AcDbEntity
  8
TIMBER_HOLE_AXES
100
AcDbLine
 10
1.426778431985942
 20
0.1821255824963179
 30
0.0277164338709014
 11
1.425916880376563
 21
0.1752440508731157
 31
0.193393555397023
  0
LINE
  5
13D
330
1F
100
AcDbEntity
  8
TIMBER_HOLE_AXES
100
AcDbLine
 10
1.425948656360597
 20
0.2228319471436544
 30
0.0147988619771375
 11
1.427665697190878
 21
0.2541642602752763
 31
0.1933899428532979
  0
LINE
  5
13E
330
1F
100
AcDbEntity
  8
TIMBER_HOLE_AXES
100
AcDbLine
 10
1.42830948582165
 20
0.2807361812199725
 30
0.0359833139808806
 11
1.428901556283209
 21
0.3063684379101712
 31
0.1932780687099716
  0
LINE
  5
13F
330
1F
100
AcDbEntity
  8
TIMBER_HOLE_AXES
100
AcDbLine
 10
1.424188460755482
 20
0.334495338515655
 30
0.0260078165584369
 11
1.427489225766478
 21
0.3616304337448053
 31
0.1933545095781802
  0
LINE
  5
140
330
1F
100
AcDbEntity
  8
TIMBER_HOLE_AXES
100
AcDbLine
 10
1.425851302782541
 20
0.4353142637013647
 30
0.0332206606256041
 11
1.429067448067955
 21
0.4924764127704471
 31
0.1933046690841933
  0
LINE
  5
141
330
1F
100
AcDbEntity
  8
TIMBER_HOLE_AXES
100
AcDbLine
 10
1.425174146408135
 20
0.49127044481002
 30
0.0268094460503871
 11
1.428505507371846
 21
0.5467946845879741
 31
0.1931133011226508
  0
LINE
  5
142
330
1F
100
AcDbEntity
  8
MODEL_HOLE_90
100
AcDbLine
 10
1.42691463966696
 20
0.0777582066610343
 30
0.0332265506474771
 11
1.42691463966696
 21
0.0777582066610343
 31
0.1931728706219922
  0
LINE
  5
143
330
1F
100
AcDbEntity
  8
MODEL_HOLE_90
100
AcDbLine
 10
1.426914639666959
 20
0.1277582066610314
 30
0.0332265506474771
 11
1.426914639666959
 21
0.1277582066610314
 31
0.193317237121906
  0
LINE
  5
144
330
1F
100
AcDbEntity
  8
MODEL_HOLE_90
100
AcDbLine
 10
1.426914639666959
 20
0.1777582066610286
 30
0.0332265506474771
 11
1.426914639666959
 21
0.1777582066610286
 31
0.1933960402690711
  0
LINE
  5
145
330
1F
100
AcDbEntity
  8
MODEL_HOLE_80
100
AcDbLine
 10
1.426913701014862
 20
0.2277582066566239
 30
0.0332265506474771
 11
1.426913701014862
 21
0.2559969995568334
 31
0.1933767034303882
  0
LINE
  5
146
330
1F
100
AcDbEntity
  8
MODEL_HOLE_80
100
AcDbLine
 10
1.426908403906361
 20
0.2785295369666905
 30
0.0332265506514597
 11
1.426908403906358
 21
0.3067520899815204
 31
0.1932846024676604
  0
LINE
  5
147
330
1F
100
AcDbEntity
  8
MODEL_HOLE_80
100
AcDbLine
 10
1.426903106797857
 20
0.3293008672767606
 30
0.0332265506554423
 11
1.426903106797857
 21
0.357535049807602
 31
0.193350556734371
  0
LINE
  5
148
330
1F
100
AcDbEntity
  8
MODEL_HOLE_70
100
AcDbLine
 10
1.426903106797857
 20
0.3793008672767577
 30
0.0332265506554406
 11
1.426903106797857
 21
0.4375887475049698
 31
0.1933711854103323
  0
LINE
  5
149
330
1F
100
AcDbEntity
  8
MODEL_HOLE_70
100
AcDbLine
 10
1.426927525546007
 20
0.4325523140826597
 30
0.0333434957337053
 11
1.426927525546007
 21
0.4907787956193612
 31
0.1933194389700784
  0
LINE
  5
14A
330
1F
100
AcDbEntity
  8
MODEL_HOLE_70
100
AcDbLine
 10
1.426951944294161
 20
0.4858037608885546
 30
0.0334604408119701
 11
1.426951944294161
 21
0.5439188783180366
 31
0.193130413678427
  0
LINE
  5
14B
330
1F
100
AcDbEntity
  8
MODEL_HOLE_60
100
AcDbLine
 10
1.426927275623097
 20
0.5358037607727759
 30
0.0333434957337071
 11
1.425402673418543
 21
0.6281143250636667
 31
0.1932518884926654
  0
LINE
  5
14C
330
1F
100
AcDbEntity
  8
MODEL_HOLE_60
100
AcDbLine
 10
1.425973853367875
 20
0.5935309148620362
 30
0.0333434957323357
 11
1.424448692018395
 21
0.685875333874824
 31
0.1933105345867629
  0
LINE
  5
14D
330
1F
100
AcDbEntity
  8
MODEL_HOLE_60
100
AcDbLine
 10
1.425020665743663
 20
0.6512580728275648
 30
0.033343495730968
 11
1.42349552528415
 21
0.7436012270092611
 31
0.1933083435349068
  0
POLYLINE
  5
14E
330
1F
100
AcDbEntity
  8
MODEL_HOLE_30
100
AcDb2dPolyline
 66
     1
 10
0.0
 20
0.0
 30
1.421667577877261
210
1.0
220
0.0
230
0.0
  0
VERTEX
  5
14F
330
14E
100
AcDbEntity
  8
MODEL_HOLE_30
100
AcDbVertex
100
AcDb2dVertex
 10
1.396931714812066
 20
0.1936320355796526
 30
1.421667577877261
  0
VERTEX
  5
150
330
14E
100
AcDbEntity
  8
MODEL_HOLE_30
100
AcDbVertex
100
AcDb2dVertex
 10
1.249707396168711
 20
0.1086320355796523
 30
1.421667577877261
  0
SEQEND
  5
151
330
14E
100
AcDbEntity
  8
MODEL_HOLE_30
  0
POLYLINE
  5
152
330
1F
100
AcDbEntity
  8
MODEL_HOLE_30
100
AcDb2dPolyline
 66
     1
 10
0.0
 20
0.0
 30
1.421667577877261
210
1.0
220
0.0
230
0.0
  0
VERTEX
  5
153
330
152
100
AcDbEntity
  8
MODEL_HOLE_30
100
AcDbVertex
100
AcDb2dVertex
 10
1.496165709070413
 20
0.1931897819585078
 30
1.421667577877261
  0
VERTEX
  5
154
330
152
100
AcDbEntity
  8
MODEL_HOLE_30
100
AcDbVertex
100
AcDb2dVertex
 10
1.348941390427058
 20
0.1081897819585075
 30
1.421667577877261
  0
SEQEND
  5
155
330
152
100
AcDbEntity
  8
MODEL_HOLE_30
  0
POLYLINE
  5
156
330
1F
100
AcDbEntity
  8
MODEL_HOLE_30
100
AcDb2dPolyline
 66
     1
 10
0.0
 20
0.0
 30
1.421667577877261
210
1.0
220
0.0
230
0.0
  0
VERTEX
  5
157
330
156
100
AcDbEntity
  8
MODEL_HOLE_30
100
AcDbVertex
100
AcDb2dVertex
 10
1.597450563472369
 20
0.1939663556806877
 30
1.421667577877261
  0
VERTEX
  5
158
330
156
100
AcDbEntity
  8
MODEL_HOLE_30
100
AcDbVertex
100
AcDb2dVertex
 10
1.450226244829015
 20
0.1089663556806873
 30
1.421667577877261
  0
SEQEND
  5
159
330
156
100
AcDbEntity
  8
MODEL_HOLE_30
  0
POLYLINE
  5
15A
330
1F
100
AcDbEntity
  8
MODEL_HOLE_30
100
AcDb2dPolyline
 66
     1
 10
0.0
 20
0.0
 30
1.421667577877261
210
1.0
220
0.0
230
0.0
  0
VERTEX
  5
15B
330
15A
100
AcDbEntity
  8
MODEL_HOLE_30
100
AcDbVertex
100
AcDb2dVertex
 10
1.698735417874326
 20
0.1947429294028676
 30
1.421667577877261
  0
VERTEX
  5
15C
330
15A
100
AcDbEntity
  8
MODEL_HOLE_30
100
AcDbVertex
100
AcDb2dVertex
 10
1.551511099230972
 20
0.1097429294028672
 30
1.421667577877261
  0
SEQEND
  5
15D
330
15A
100
AcDbEntity
  8
MODEL_HOLE_30
  0
LINE
  5
15E
330
1F
100
AcDbEntity
  8
MODEL_HOLE_40
100
AcDbLine
 10
1.4228018598412
 20
1.247966058431528
 30
0.1930966087256074
 11
1.4228018598412
 21
1.110078058670114
 31
0.0773948389820286
  0
LINE
  5
15F
330
1F
100
AcDbEntity
  8
MODEL_HOLE_40
100
AcDbLine
 10
1.422799304497882
 20
1.17032481351851
 30
0.1931799573443949
 11
1.422799304497882
 21
1.032436813757096
 31
0.0774781876008162
  0
LINE
  5
160
330
1F
100
AcDbEntity
  8
MODEL_HOLE_40
100
AcDbLine
 10
1.422798514466531
 20
1.092555352824524
 30
0.1931939960176831
 11
1.422798514466531
 21
0.95466735306311
 31
0.0774922262741043
  0
LINE
  5
161
330
1F
100
AcDbEntity
  8
MODEL_HOLE_50
100
AcDbLine
 10
1.425023157024302
 20
0.9658131826669436
 30
0.1932483541567139
 11
1.425023157024303
 21
0.8501114129233667
 31
0.0553603543952982
  0
LINE
  5
162
330
1F
100
AcDbEntity
  8
MODEL_HOLE_50
100
AcDbLine
 10
1.425021861901879
 20
0.8956842518741066
 30
0.1873617710222136
 11
1.425021861901879
 21
0.7799824821305297
 31
0.0494737712607979
  0
LINE
  5
163
330
1F
100
AcDbEntity
  8
MODEL_HOLE_50
100
AcDbLine
 10
1.425020665743663
 20
0.8355616839218651
 30
0.1934003067509756
 11
1.425020665743663
 21
0.7198599141782882
 31
0.0555123069895598
  0
LINE
  5
164
330
1F
100
AcDbEntity
  8
TIMBER_HOLE_AXES
100
AcDbLine
 10
1.42184523891629
 20
1.124347834886495
 30
0.084247723892712
 11
1.424576535536676
 21
1.25067094319124
 31
0.1930312563892589
  0
LINE
  5
165
330
1F
100
AcDbEntity
  8
TIMBER_HOLE_AXES
100
AcDbLine
 10
1.42264243881425
 20
1.278305523160738
 30
0.1145722758097796
 11
1.421733491058305
 21
1.412343764903994
 31
0.1933919480788144
  0
LINE
  5
166
330
1F
100
AcDbEntity
  8
TIMBER_HOLE_AXES
100
AcDbLine
 10
1.426878786375726
 20
1.364594744189688
 30
0.1125851056013469
 11
1.426239563301437
 21
1.504573563536304
 31
0.1930984293880496
  0
LINE
  5
167
330
1F
100
AcDbEntity
  8
TIMBER_HOLE_AXES
100
AcDbLine
 10
1.425781886590775
 20
1.561559476820559
 30
0.1070014649557222
 11
1.425153033317522
 21
1.707509945997339
 31
0.192739214116227
  0
LINE
  5
168
330
1F
100
AcDbEntity
  8
TIMBER_HOLE_AXES
100
AcDbLine
 10
1.420511757469531
 20
1.444118003497744
 30
0.0988736172437421
 11
1.418653237054685
 21
1.607571595148993
 31
0.1931675919197273
  0
LINE
  5
169
330
1F
100
AcDbEntity
  8
TIMBER_HOLE_AXES
100
AcDbLine
 10
1.418895837512081
 20
0.9676931513745588
 30
0.0812782609500006
 11
1.421706320112916
 21
1.097678629818795
 31
0.1932156547347181
  0
LINE
  5
16A
330
1F
100
AcDbEntity
  8
TIMBER_HOLE_AXES
100
AcDbLine
 10
1.419721135806177
 20
1.044683510568047
 30
0.0794469065381779
 11
1.422854847263337
 21
1.17652144016656
 31
0.193208772764484
  0
LINE
  5
16B
330
1F
100
AcDbEntity
  8
TIMBER_HOLE_AXES
100
AcDbLine
 10
1.425196498908047
 20
0.540599261551014
 30
0.0387470907180214
 11
1.428651190723774
 21
0.6333649526241238
 31
0.1932575679071927
  0
LINE
  5
16C
330
1F
100
AcDbEntity
  8
TIMBER_HOLE_AXES
100
AcDbLine
 10
1.428977974449314
 20
0.5859600793501842
 30
0.0383864122209739
 11
1.428645475927324
 21
0.6787849195728768
 31
0.1932748594933693
  0
LINE
  5
16D
330
1F
100
AcDbEntity
  8
TIMBER_HOLE_AXES
100
AcDbLine
 10
1.427366055931178
 20
0.6577281182619839
 30
0.0400728680822188
 11
1.427544184427117
 21
0.7512417186350415
 31
0.1933046200736134
  0
LINE
  5
16E
330
1F
100
AcDbEntity
  8
TIMBER_HOLE_AXES
100
AcDbLine
 10
1.426245051239033
 20
0.7182044671931358
 30
0.0472646221129377
 11
1.423158533028931
 21
0.8376648241783675
 31
0.1933973306511475
  0
LINE
  5
16F
330
1F
100
AcDbEntity
  8
TIMBER_HOLE_AXES
100
AcDbLine
 10
1.427906473064358
 20
0.7985088659398789
 30
0.0715763781664329
 11
1.425264817764881
 21
0.8962695839847274
 31
0.1873680324227718
  0
LINE
  5
170
330
1F
100
AcDbEntity
  8
TIMBER_HOLE_AXES
100
AcDbLine
 10
1.426506058729741
 20
0.8617575575565137
 30
0.0667378252943489
 11
1.424474873305902
 21
0.9751939460649819
 31
0.1932915368759288
  0
LINE
  5
171
330
1F
100
AcDbEntity
  8
TIMBER_HOLE_AXES
100
AcDbLine
 10
1.430567887756923
 20
0.0738833105516914
 30
0.1932339325545979
 11
1.433101123572526
 21
0.0761373055070234
 31
0.0497029824495132
  0
LINE
  5
172
330
1F
100
AcDbEntity
  8
TIMBER_HOLE_AXES
100
AcDbLine
 10
1.428470249451374
 20
0.1300952088225094
 30
0.0492084300736903
 11
1.427739589778077
 21
0.1254429542498086
 31
0.193312321641372
  0
LINE
  5
173
330
1F
100
AcDbEntity
  8
TIMBER_HOLE_AXES
100
AcDbLine
 10
1.426778431985942
 20
0.1821255824963179
 30
0.0277164338709014
 11
1.425916880376563
 21
0.1752440508731157
 31
0.193393555397023
  0
LINE
  5
174
330
1F
100
AcDbEntity
  8
TIMBER_HOLE_AXES
100
AcDbLine
 10
1.425948656360597
 20
0.2228319471436544
 30
0.0147988619771375
 11
1.427665697190878
 21
0.2541642602752763
 31
0.1933899428532979
  0
LINE
  5
175
330
1F
100
AcDbEntity
  8
TIMBER_HOLE_AXES
100
AcDbLine
 10
1.42830948582165
 20
0.2807361812199725
 30
0.0359833139808806
 11
1.428901556283209
 21
0.3063684379101712
 31
0.1932780687099716
  0
LINE
  5
176
330
1F
100
AcDbEntity
  8
TIMBER_HOLE_AXES
100
AcDbLine
 10
1.424188460755482
 20
0.334495338515655
 30
0.0260078165584369
 11
1.427489225766478
 21
0.3616304337448053
 31
0.1933545095781802
  0
LINE
  5
177
330
1F
100
AcDbEntity
  8
TIMBER_HOLE_AXES
100
AcDbLine
 10
1.428224606574223
 20
0.4404648262854405
 30
0.1933750924149366
 11
1.42509406558744
 21
0.3812981292897959
 31
0.0345616425692317
  0
LINE
  5
178
330
1F
100
AcDbEntity
  8
TIMBER_HOLE_AXES
100
AcDbLine
 10
1.425851302782541
 20
0.4353142637013647
 30
0.0332206606256041
 11
1.429067448067955
 21
0.4924764127704471
 31
0.1933046690841933
  0
LINE
  5
179
330
1F
100
AcDbEntity
  8
TIMBER_HOLE_AXES
100
AcDbLine
 10
1.425174146408135
 20
0.49127044481002
 30
0.0268094460503871
 11
1.428505507371846
 21
0.5467946845879741
 31
0.1931133011226508
  0
LINE
  5
17A
330
1F
100
AcDbEntity
  8
TIMBER_HOLE_AXES
100
AcDbLine
 10
1.428224606574223
 20
0.4426008608161759
 30
0.1933750924149366
 11
1.42509406558744
 21
0.3834341638205314
 31
0.0345616425692317
  0
LINE
  5
17B
330
1F
100
AcDbEntity
  8
MODEL_HOLE_90
100
AcDbLine
 10
2.123788310110582
 20
0.0308038796921224
 30
0.0004212736269778
 11
2.123781170556093
 21
0.0311230754727738
 31
0.0746208186573832
  0
LINE
  5
17C
330
1F
100
AcDbEntity
  8
MODEL_HOLE_80
100
AcDbLine
 10
2.12249215204299
 20
0.2823186558980382
 30
0.0034125998613744
 11
2.122419194251916
 21
0.2954383638463831
 31
0.075991957338314
  0
LINE
  5
17D
330
1F
100
AcDbEntity
  8
MODEL_HOLE_80
100
AcDbLine
 10
2.123015330157572
 20
0.1807978385726585
 30
0.0022051881586354
 11
2.122941789763941
 21
0.1940223136100521
 31
0.0753641262205844
  0
LINE
  5
17E
330
1F
100
AcDbEntity
  8
MODEL_HOLE_80
100
AcDbLine
 10
2.122753741100281
 20
0.2315582472353483
 30
0.0028088940100049
 11
2.122680602656504
 21
0.2447104412367089
 31
0.0755679671379533
  0
LINE
  5
17F
330
1F
100
AcDbEntity
  8
MODEL_HOLE_90
100
AcDbLine
 10
2.123273075926861
 20
0.1308085949799285
 30
0.0016106539621485
 11
2.123266013355727
 21
0.1311243489825138
 31
0.07501013087797
  0
LINE
  5
180
330
1F
100
AcDbEntity
  8
MODEL_HOLE_90
100
AcDbLine
 10
2.123530693018722
 20
0.0808062373360237
 30
0.0010159637945631
 11
2.123523598063284
 21
0.0811234391787536
 31
0.0747520024269335
  0
LINE
  5
181
330
1F
100
AcDbEntity
  8
MODEL_HOLE_70
100
AcDbLine
 10
2.122234612871178
 20
0.3323175298861436
 30
0.0031974871093642
 11
2.122089777817032
 21
0.3593793336305389
 31
0.0765665594198345
  0
LINE
  5
182
330
1F
100
AcDbEntity
  8
MODEL_HOLE_70
100
AcDbLine
 10
2.121960159993068
 20
0.3855497854378065
 30
0.0046403527220886
 11
2.121817322070409
 21
0.4122384337978353
 31
0.0769977384267044
  0
LINE
  5
183
330
1F
100
AcDbEntity
  8
MODEL_HOLE_70
100
AcDbLine
 10
2.121685782876275
 20
0.4387916707075235
 30
0.0052735713765889
 11
2.121543339246489
 21
0.4654066471485407
 31
0.0774312201972789
  0
LINE
  5
184
330
1F
100
AcDbEntity
  8
MODEL_HOLE_60
100
AcDbLine
 10
2.121403586613821
 20
0.4887899144315782
 30
0.0049415128024657
 11
2.121178992094241
 21
0.5313409994087195
 31
0.0779163167189322
  0
LINE
  5
185
330
1F
100
AcDbEntity
  8
MODEL_HOLE_60
100
AcDbLine
 10
2.12083324149842
 20
0.6042242357774157
 30
0.0072411009960493
 11
2.120611540826593
 21
0.6462270599963738
 31
0.0792756416655292
  0
LINE
  5
186
330
1F
100
AcDbEntity
  8
MODEL_HOLE_60
100
AcDbLine
 10
2.121130709600398
 20
0.5465016285056414
 30
0.0065545920280495
 11
2.120908594252339
 21
0.5885830161891974
 31
0.0787238684728201
  0
LINE
  5
187
330
1F
100
AcDbEntity
  8
MODEL_HOLE_60
100
AcDbLine
 10
2.120535773396441
 20
0.6619468430491899
 30
0.0079276099640491
 11
2.120314335067447
 21
0.7038999644873982
 31
0.0798769107229273
  0
LINE
  5
188
330
1F
100
AcDbEntity
  8
MODEL_HOLE_50
100
AcDbLine
 10
2.120175112490059
 20
0.7319317850272533
 30
0.0087599578527486
 11
2.119854457611588
 21
0.7931404774373227
 31
0.081072529487483
  0
LINE
  5
189
330
1F
100
AcDbEntity
  8
MODEL_HOLE_50
100
AcDbLine
 10
2.119839068039146
 20
0.7971399930230163
 30
0.0095354948856743
 11
2.119517957123199
 21
0.8584357368381248
 31
0.0819509099355299
  0
LINE
  5
18A
330
1F
100
AcDbEntity
  8
MODEL_HOLE_50
100
AcDbLine
 10
2.119503023588234
 20
0.8623482010181647
 30
0.0103110319185927
 11
2.119181309122205
 21
0.9237591544050581
 31
0.0828625567281027
  0
LINE
  5
18B
330
1F
100
AcDbEntity
  8
MODEL_HOLE_50
100
AcDbLine
 10
2.119166985525435
 20
0.9275551694232753
 30
0.0110865542087662
 11
2.118846042957716
 21
0.988818777831721
 31
0.0834640041624148
  0
LINE
  5
18C
330
1F
100
AcDbEntity
  8
MODEL_HOLE_40
100
AcDbLine
 10
2.118754801632428
 20
1.007537960255345
 30
0.0120378089387084
 11
2.118296335666436
 21
1.095487618293191
 31
0.0851948455369886
  0
LINE
  5
18D
330
1F
100
AcDbEntity
  8
MODEL_HOLE_40
100
AcDbLine
 10
2.118354262161203
 20
1.085261193235596
 30
0.0129621901990984
 11
2.117895503824001
 21
1.173266938202254
 31
0.0861658802306618
  0
LINE
  5
18E
330
1F
100
AcDbEntity
  8
MODEL_HOLE_40
100
AcDbLine
 10
2.11795371949592
 20
1.162985046011446
 30
0.0138865788308679
 11
2.117492984714997
 21
1.251369941366811
 31
0.0874056483588583
  0
LINE
  5
18F
330
1F
100
AcDbEntity
  8
MODEL_HOLE_40
100
AcDbLine
 10
2.117553176830715
 20
1.240708898771821
 30
0.0148109674624533
 11
2.117092592815295
 21
1.329064872079918
 31
0.0883059794634733
  0
LINE
  5
190
330
1F
100
AcDbEntity
  8
MODEL_HOLE_30
100
AcDbLine
 10
2.117124740199542
 20
1.323845474551042
 30
0.0157997309216732
 11
2.116452140317518
 21
1.453352141509669
 31
0.0898303776617416
  0
LINE
  5
191
330
1F
100
AcDbEntity
  8
MODEL_HOLE_30
100
AcDbLine
 10
2.116608506538216
 20
1.424018745886439
 30
0.016991115933127
 11
2.115932108543847
 21
1.554256725596971
 31
0.0914398072207428
  0
LINE
  5
192
330
1F
100
AcDbEntity
  8
MODEL_HOLE_30
100
AcDbLine
 10
2.11609157930552
 20
1.524326602232797
 30
0.0181841015967578
 11
2.115414111584413
 21
1.654770553945561
 31
0.0927505338539567
  0
LINE
  5
193
330
1F
100
AcDbEntity
  8
MODEL_HOLE_30
100
AcDbLine
 10
2.11557536424303
 20
1.624496264531466
 30
0.0193754436850625
 11
2.114892252440613
 21
1.756026963622439
 31
0.0945630996455792
  0
LINE
  5
194
330
1F
100
AcDbEntity
  8
TIMBER_HOLE_AXES
100
AcDbLine
 10
2.121867739370079
 20
0.0346212859077095
 30
-0.0004678572542738
 11
2.123576975495954
 21
0.0318851338051207
 31
0.0746333797456115
  0
LINE
  5
195
330
1F
100
AcDbEntity
  8
TIMBER_HOLE_AXES
100
AcDbLine
 10
2.122573039618291
 20
0.0912332761773396
 30
-0.0051188515368199
 11
2.12358621754569
 21
0.0918139508207023
 31
0.0748076767769775
  0
LINE
  5
196
330
1F
100
AcDbEntity
  8
TIMBER_HOLE_AXES
100
AcDbLine
 10
2.125894116506777
 20
0.140674252471559
 30
-0.0016432299971072
 11
2.129067233323457
 21
0.1402157398398192
 31
0.0749470354558185
  0
LINE
  5
197
330
1F
100
AcDbEntity
  8
TIMBER_HOLE_AXES
100
AcDbLine
 10
2.126892864609626
 20
0.1881050010202028
 30
-0.0016063985001212
 11
2.127830853314491
 21
0.2020889084249795
 31
0.0753382661564506
  0
LINE
  5
198
330
1F
100
AcDbEntity
  8
TIMBER_HOLE_AXES
100
AcDbLine
 10
2.124098980075047
 20
0.2398168900792204
 30
-0.0007518050797952
 11
2.12804122937761
 21
0.2516831866940965
 31
0.0755314536027421
  0
LINE
  5
199
330
1F
100
AcDbEntity
  8
TIMBER_HOLE_AXES
100
AcDbLine
 10
2.124781123014856
 20
0.2841481846721177
 30
-0.003323661832211
 11
2.126395618509784
 21
0.2962851566664018
 31
0.0758974285208811
  0
LINE
  5
19A
330
1F
100
AcDbEntity
  8
TIMBER_HOLE_AXES
100
AcDbLine
 10
2.12274980911038
 20
0.3373610789089891
 30
0.0106291348199376
 11
2.124208561300525
 21
0.3622288142942285
 31
0.0765326021412938
  0
LINE
  5
19B
330
1F
100
AcDbEntity
  8
TIMBER_HOLE_AXES
100
AcDbLine
 10
2.122092831800179
 20
0.3818656406635785
 30
0.0026147922529212
 11
2.124812583587792
 21
0.4125708875171963
 31
0.076948027937329
  0
LINE
  5
19C
330
1F
100
AcDbEntity
  8
TIMBER_HOLE_AXES
100
AcDbLine
 10
2.125543295359751
 20
0.4404707936956793
 30
0.0060871690546924
 11
2.127384148172332
 21
0.4670190470332631
 31
0.0773203353348667
  0
LINE
  5
19D
330
1F
100
AcDbEntity
  8
TIMBER_HOLE_AXES
100
AcDbLine
 10
2.125918196945854
 20
0.4901378870191397
 30
0.0057460779936484
 11
2.127653615349502
 21
0.5282504623145474
 31
0.0777584651727188
  0
LINE
  5
19E
330
1F
100
AcDbEntity
  8
TIMBER_HOLE_AXES
100
AcDbLine
 10
2.124331016585245
 20
0.5511317558217197
 30
0.0029241946451735
 11
2.125276323769783
 21
0.5908320589170888
 31
0.0786624620058644
  0
LINE
  5
19F
330
1F
100
AcDbEntity
  8
TIMBER_HOLE_AXES
100
AcDbLine
 10
2.124053184830157
 20
0.6132266874165939
 30
0.0195871444022543
 11
2.124713229581344
 21
0.6492576818313527
 31
0.0792521897094172
  0
LINE
  5
1A0
330
1F
100
AcDbEntity
  8
TIMBER_HOLE_AXES
100
AcDbLine
 10
2.123576333085913
 20
0.6655552517067509
 30
0.0163017701037392
 11
2.122733123657968
 21
0.7040711856869866
 31
0.0798044630029704
  0
LINE
  5
1A1
330
1F
100
AcDbEntity
  8
TIMBER_HOLE_AXES
100
AcDbLine
 10
2.1229813762229
 20
0.7457197482157998
 30
0.0222956606568849
 11
2.122297254035466
 21
0.7939730012092578
 31
0.0810406496175249
  0
LINE
  5
1A2
330
1F
100
AcDbEntity
  8
TIMBER_HOLE_AXES
100
AcDbLine
 10
2.121530099000929
 20
0.8076559127798806
 30
0.0174757276481794
 11
2.122590934731715
 21
0.8604698447152845
 31
0.0819049335837147
  0
LINE
  5
1A3
330
1F
100
AcDbEntity
  8
TIMBER_HOLE_AXES
100
AcDbLine
 10
2.125305460635905
 20
0.8653675726019348
 30
0.0112668170699533
 11
2.124472544278906
 21
0.9241157384046677
 31
0.0827886345110957
  0
LINE
  5
1A4
330
1F
100
AcDbEntity
  8
TIMBER_HOLE_AXES
100
AcDbLine
 10
2.12342289210601
 20
0.9235092648040606
 30
0.0130918989183345
 11
2.121608380885551
 21
0.9817676170639178
 31
0.0833644488934732
  0
LINE
  5
1A5
330
1F
100
AcDbEntity
  8
TIMBER_HOLE_AXES
100
AcDbLine
 10
2.122532461396683
 20
1.013370112969628
 30
0.0185523703531903
 11
2.122013532973569
 21
1.091267277790143
 31
0.0850918237714515
  0
LINE
  5
1A6
330
1F
100
AcDbEntity
  8
TIMBER_HOLE_AXES
100
AcDbLine
 10
2.122770708445703
 20
1.096957438474716
 30
0.0253455867189032
 11
2.122280721278532
 21
1.169282697370869
 31
0.0859787530340666
  0
LINE
  5
1A7
330
1F
100
AcDbEntity
  8
TIMBER_HOLE_AXES
100
AcDbLine
 10
2.123988253807046
 20
1.16861131354568
 30
0.0171684078078004
 11
2.124515446610526
 21
1.24911741732514
 31
0.0872332538180035
  0
LINE
  5
1A8
330
1F
100
AcDbEntity
  8
TIMBER_HOLE_AXES
100
AcDbLine
 10
2.116355662030207
 20
1.239678970594946
 30
0.0143584514091021
 11
2.115235765364493
 21
1.326054389976145
 31
0.0883081544845633
  0
LINE
  5
1A9
330
1F
100
AcDbEntity
  8
TIMBER_HOLE_AXES
100
AcDbLine
 10
2.115867054899423
 20
1.333777300400302
 30
0.0236655832219301
 11
2.118273106649612
 21
1.454879045854602
 31
0.0898286254357267
  0
LINE
  5
1AA
330
1F
100
AcDbEntity
  8
TIMBER_HOLE_AXES
100
AcDbLine
 10
2.118605020671242
 20
1.438526384550771
 30
0.0210615406708845
 11
2.117731546255518
 21
1.566526511571448
 31
0.0915553979446172
  0
LINE
  5
1AB
330
1F
100
AcDbEntity
  8
TIMBER_HOLE_AXES
100
AcDbLine
 10
2.116617873115795
 20
1.543807740249404
 30
0.0212168230375296
 11
2.115791157441593
 21
1.665719604454065
 31
0.0929057161276422
  0
LINE
  5
1AC
330
1F
100
AcDbEntity
  8
TIMBER_HOLE_AXES
100
AcDbLine
 10
2.116694492211741
 20
1.644083490424654
 30
0.0208791035150745
 11
2.114806062768709
 21
1.769786728900408
 31
0.095327166356422
  0
LINE
  5
1AD
330
1F
100
AcDbEntity
  8
MODEL_HOLE_30
100
AcDbLine
 10
2.864635597626962
 20
1.311575994277413
 30
0.0349920749360581
 11
2.863804665234247
 21
1.442883286014309
 31
0.1108038930823059
  0
LINE
  5
1AE
330
1F
100
AcDbEntity
  8
MODEL_HOLE_30
100
AcDbLine
 10
2.865270461927322
 20
1.211252174154605
 30
0.0347691948679145
 11
2.86443295524008
 21
1.343598362457472
 31
0.1111808322358561
  0
LINE
  5
1AF
330
1F
100
AcDbEntity
  8
MODEL_HOLE_30
100
AcDbLine
 10
2.865904485808688
 20
1.111061160435038
 30
0.0346577548350222
 11
2.865065824680338
 21
1.243589778183231
 31
0.1111747200012192
  0
LINE
  5
1B0
330
1F
100
AcDbEntity
  8
MODEL_HOLE_40
100
AcDbLine
 10
2.867172366713507
 20
0.8608649560815063
 30
0.0337827742945308
 11
2.866703241427784
 21
0.953110479953041
 31
0.1111869603045624
  0
LINE
  5
1B1
330
1F
100
AcDbEntity
  8
MODEL_HOLE_40
100
AcDbLine
 10
2.866777803152801
 20
0.9386045307025959
 30
0.0337444984054912
 11
2.866309274195676
 21
1.03073279667833
 31
0.1110502920860436
  0
LINE
  5
1B2
330
1F
100
AcDbEntity
  8
MODEL_HOLE_40
100
AcDbLine
 10
2.866385004881201
 20
1.016344114308472
 30
0.0337444983915184
 11
2.865914054601215
 21
1.108948492321864
 31
0.1114498026735375
  0
LINE
  5
1B3
330
1F
100
AcDbEntity
  8
MODEL_HOLE_50
100
AcDbLine
 10
2.868163419658726
 20
0.6653653423532377
 30
0.0329399483071972
 11
2.86783111577174
 21
0.730913178344669
 31
0.1110578211806233
  0
LINE
  5
1B4
330
1F
100
AcDbEntity
  8
MODEL_HOLE_50
100
AcDbLine
 10
2.867833969969452
 20
0.7305861286239788
 30
0.0329782241836353
 11
2.867503356185419
 21
0.7958005872600902
 31
0.1106987882906029
  0
LINE
  5
1B5
330
1F
100
AcDbEntity
  8
MODEL_HOLE_50
100
AcDbLine
 10
2.867504619243124
 20
0.7958069153959633
 30
0.0330165000587056
 11
2.86717265361069
 21
0.8612880297671643
 31
0.1110548561796978
  0
LINE
  5
1B6
330
1F
100
AcDbEntity
  8
MODEL_HOLE_60
100
AcDbLine
 10
2.868461159548999
 20
0.6066318167424916
 30
0.031856439614625
 11
2.868236604751615
 21
0.6522575801805557
 31
0.1108835371349666
  0
LINE
  5
1B7
330
1F
100
AcDbEntity
  8
MODEL_HOLE_60
100
AcDbLine
 10
2.868745074002766
 20
0.5488974879076727
 30
0.0318564396159928
 11
2.868521260428131
 21
0.5943726473315296
 31
0.1106226801726181
  0
LINE
  5
1B8
330
1F
100
AcDbEntity
  8
MODEL_HOLE_60
100
AcDbLine
 10
2.869029223116713
 20
0.4911631602288744
 30
0.0318564396173642
 11
2.868806950883729
 21
0.5363251449161899
 31
0.1100802390490483
  0
LINE
  5
1B9
330
1F
100
AcDbEntity
  8
MODEL_HOLE_70
100
AcDbLine
 10
2.869321050247293
 20
0.441003300616345
 30
0.0315318897942849
 11
2.869172209435932
 21
0.4693643793420219
 31
0.1094543862406318
  0
LINE
  5
1BA
330
1F
100
AcDbEntity
  8
MODEL_HOLE_70
100
AcDbLine
 10
2.869576095091303
 20
0.3877524589767654
 30
0.0314149447160202
 11
2.869427862229149
 21
0.4159976951777247
 31
0.1090191620585332
  0
LINE
  5
1BB
330
1F
100
AcDbEntity
  8
MODEL_HOLE_70
100
AcDbLine
 10
2.869831139935317
 20
0.3345016173371751
 30
0.0312979996377554
 11
2.869683040664227
 21
0.3627213982439987
 31
0.1088322781713105
  0
LINE
  5
1BC
330
1F
100
AcDbEntity
  8
MODEL_HOLE_80
100
AcDbLine
 10
2.870305025316765
 20
0.2843891852457099
 30
0.0306441907793534
 11
2.87021007469898
 21
0.298049896461777
 31
0.1081198053491612
  0
LINE
  5
1BD
330
1F
100
AcDbEntity
  8
MODEL_HOLE_80
100
AcDbLine
 10
2.870663206759756
 20
0.2336191181237592
 30
0.0306441907753709
 11
2.870568697561064
 21
0.2472163216040273
 31
0.1077596263776885
  0
LINE
  5
1BE
330
1F
100
AcDbEntity
  8
MODEL_HOLE_80
100
AcDbLine
 10
2.871021388202744
 20
0.1828490510018104
 30
0.0306441907713883
 11
2.870927473363602
 21
0.1963607429353815
 31
0.1072746545791578
  0
LINE
  5
1BF
330
1F
100
AcDbEntity
  8
MODEL_HOLE_90
100
AcDbLine
 10
2.87136985018861
 20
0.1328502652697048
 30
0.0302130879611338
 11
2.87136985018861
 21
0.1328502652697048
 31
0.1066207123032335
  0
LINE
  5
1C0
330
1F
100
AcDbEntity
  8
MODEL_HOLE_90
100
AcDbLine
 10
2.87136985018861
 20
0.0828502652697076
 30
0.0302130879611338
 11
2.87136985018861
 21
0.0828502652697076
 31
0.1061135992397501
  0
LINE
  5
1C1
330
1F
100
AcDbEntity
  8
MODEL_HOLE_90
100
AcDbLine
 10
2.87136985018861
 20
0.0328502652697105
 30
0.0302130879611338
 11
2.87136985018861
 21
0.0328502652697105
 31
0.1059536254007682
  0
LINE
  5
1C2
330
1F
100
AcDbEntity
  8
TIMBER_HOLE_AXES
100
AcDbLine
 10
2.871897648097523
 20
0.0323899866518769
 30
0.0070747181348276
 11
2.874874820266222
 21
0.031136111579944
 31
0.1059261568491756
  0
LINE
  5
1C3
330
1F
100
AcDbEntity
  8
TIMBER_HOLE_AXES
100
AcDbLine
 10
2.875446920885128
 20
0.0839900788928434
 30
0.0122259327372768
 11
2.878338406360363
 21
0.0850147977230491
 31
0.1060972335534955
  0
LINE
  5
1C4
330
1F
100
AcDbEntity
  8
TIMBER_HOLE_AXES
100
AcDbLine
 10
2.874962039816974
 20
0.1357631487836226
 30
-0.000598968785148
 11
2.87707352277241
 21
0.1371490010572374
 31
0.1065944183648895
  0
LINE
  5
1C5
330
1F
100
AcDbEntity
  8
TIMBER_HOLE_AXES
100
AcDbLine
 10
2.878151211095265
 20
0.1854923046986414
 30
0.0033266724288302
 11
2.879304437557306
 21
0.1994640458248047
 31
0.1071481049584583
  0
LINE
  5
1C6
330
1F
100
AcDbEntity
  8
TIMBER_HOLE_AXES
100
AcDbLine
 10
2.875915931407835
 20
0.2360961805741173
 30
0.0150597379381274
 11
2.877877135451823
 21
0.2512293148232208
 31
0.1076640218400605
  0
LINE
  5
1C7
330
1F
100
AcDbEntity
  8
TIMBER_HOLE_AXES
100
AcDbLine
 10
2.87648486231305
 20
0.2884216998230693
 30
0.0201583705120998
 11
2.878241413003941
 21
0.3042268908869876
 31
0.1079653017411349
  0
LINE
  5
1C8
330
1F
100
AcDbEntity
  8
TIMBER_HOLE_AXES
100
AcDbLine
 10
2.873457884687346
 20
0.3270620010738465
 30
0.0174269448039741
 11
2.87624807400572
 21
0.3647132075214556
 31
0.1087187576814295
  0
LINE
  5
1C9
330
1F
100
AcDbEntity
  8
TIMBER_HOLE_AXES
100
AcDbLine
 10
2.87658993169999
 20
0.3824509642962513
 30
0.0176933572291529
 11
2.878017644656127
 21
0.4178885277667708
 31
0.1089372158173313
  0
LINE
  5
1CA
330
1F
100
AcDbEntity
  8
TIMBER_HOLE_AXES
100
AcDbLine
 10
2.87730576822189
 20
0.4398843962037775
 30
0.0218271102581453
 11
2.878986019549576
 21
0.4707722998247355
 31
0.1093535560692212
  0
LINE
  5
1CB
330
1F
100
AcDbEntity
  8
TIMBER_HOLE_AXES
100
AcDbLine
 10
2.877564963566232
 20
0.484770928665947
 30
0.0251803872137716
 11
2.878347239495056
 21
0.5334609267401849
 31
0.1096833532991898
  0
LINE
  5
1CC
330
1F
100
AcDbEntity
  8
TIMBER_HOLE_AXES
100
AcDbLine
 10
2.876802611120941
 20
0.5466074452367673
 30
0.0295803840546868
 11
2.878081390761046
 21
0.5933586701276043
 31
0.1103424515526469
  0
LINE
  5
1CD
330
1F
100
AcDbEntity
  8
TIMBER_HOLE_AXES
100
AcDbLine
 10
2.877958429606407
 20
0.6007386375035573
 30
0.0263101325433044
 11
2.877475309086609
 21
0.6502966486189155
 31
0.1106280169097356
  0
LINE
  5
1CE
330
1F
100
AcDbEntity
  8
TIMBER_HOLE_AXES
100
AcDbLine
 10
2.88042064849084
 20
0.6529837563314933
 30
0.0314964046715656
 11
2.87813398588463
 21
0.7187977662065523
 31
0.1107922785575982
  0
LINE
  5
1CF
330
1F
100
AcDbEntity
  8
TIMBER_HOLE_AXES
100
AcDbLine
 10
2.877126177509235
 20
0.7249030994228072
 30
0.0319963012003701
 11
2.876592837308785
 21
0.7908503584845858
 31
0.1106603071492778
  0
LINE
  5
1D0
330
1F
100
AcDbEntity
  8
TIMBER_HOLE_AXES
100
AcDbLine
 10
2.877876278129516
 20
0.7949515353496501
 30
0.0345050958093304
 11
2.876617304693854
 21
0.857648736288311
 31
0.1109909898488298
  0
LINE
  5
1D1
330
1F
100
AcDbEntity
  8
TIMBER_HOLE_AXES
100
AcDbLine
 10
2.872060879832832
 20
0.9511039789135611
 30
0.1110361505015417
 11
2.876583133134629
 21
0.8625304197207408
 31
0.0325932609243324
  0
LINE
  5
1D2
330
1F
100
AcDbEntity
  8
TIMBER_HOLE_AXES
100
AcDbLine
 10
2.876049196934674
 20
0.9397805681492062
 30
0.0408436001563633
 11
2.871701066740914
 21
1.021617339383517
 31
0.1108922021771156
  0
LINE
  5
1D3
330
1F
100
AcDbEntity
  8
TIMBER_HOLE_AXES
100
AcDbLine
 10
2.868348848938054
 20
1.109123752912777
 30
0.1114252742510866
 11
2.873852076776982
 21
1.018392489100975
 31
0.0341114207974021
  0
LINE
  5
1D4
330
1F
100
AcDbEntity
  8
TIMBER_HOLE_AXES
100
AcDbLine
 10
2.867996877525423
 20
1.124526672424451
 30
0.0306264109646766
 11
2.862669658112595
 21
1.256535331748952
 31
0.111374344091563
  0
LINE
  5
1D5
330
1F
100
AcDbEntity
  8
TIMBER_HOLE_AXES
100
AcDbLine
 10
2.863612907017878
 20
1.341672291962389
 30
0.111168952816236
 11
2.871582249087574
 21
1.210470711238816
 31
0.0328278559470826
  0
LINE
  5
1D6
330
1F
100
AcDbEntity
  8
TIMBER_HOLE_AXES
100
AcDbLine
 10
2.864831968462784
 20
1.308668614670834
 30
0.0319595599113413
 11
2.861870414665234
 21
1.443898283645806
 31
0.1107873065490092
  0
LINE
  5
1D7
330
1F
100
AcDbEntity
  8
MODEL_HOLE_30
100
AcDbLine
 10
3.551159654975808
 20
1.301244742074265
 30
0.0314460564999368
 11
3.550425301266414
 21
1.431022244868676
 31
0.1063743322195067
  0
LINE
  5
1D8
330
1F
100
AcDbEntity
  8
MODEL_HOLE_30
100
AcDbLine
 10
3.551727345550122
 20
1.200920519355495
 30
0.0312231764317932
 11
3.550985209502499
 21
1.332073343617879
 31
0.1069455070833555
  0
LINE
  5
1D9
330
1F
100
AcDbEntity
  8
MODEL_HOLE_30
100
AcDbLine
 10
3.552294284628512
 20
1.100729103572914
 30
0.0311117363989008
 11
3.551551037538764
 21
1.23207827500475
 31
0.1069474299564561
  0
LINE
  5
1DA
330
1F
100
AcDbEntity
  8
MODEL_HOLE_40
100
AcDbLine
 10
3.553341567035072
 20
0.8578567582353598
 30
0.0313499509851506
 11
3.552935029148514
 21
0.9499162825311389
 31
0.1085978170757776
  0
LINE
  5
1DB
330
1F
100
AcDbEntity
  8
MODEL_HOLE_40
100
AcDbLine
 10
3.552999055466517
 20
0.9355965796173065
 30
0.031311675096111
 11
3.552594678110867
 21
1.027166856897934
 31
0.1081490101938746
  0
LINE
  5
1DC
330
1F
100
AcDbEntity
  8
MODEL_HOLE_40
100
AcDbLine
 10
3.552658309192696
 20
1.013336408802055
 30
0.0313116750821382
 11
3.552257354734276
 21
1.104131579257522
 31
0.107498611987059
  0
LINE
  5
1DD
330
1F
100
AcDbEntity
  8
MODEL_HOLE_50
100
AcDbLine
 10
3.554184449030784
 20
0.6623863427490315
 30
0.0315416727066353
 11
3.553899758288963
 21
0.7270879518310194
 31
0.1086507942013785
  0
LINE
  5
1DE
330
1F
100
AcDbEntity
  8
MODEL_HOLE_50
100
AcDbLine
 10
3.553898669143467
 20
0.7276073349887033
 30
0.0315799485830734
 11
3.553614914802767
 21
0.7920961283715284
 31
0.1084354437486502
  0
LINE
  5
1DF
330
1F
100
AcDbEntity
  8
MODEL_HOLE_50
100
AcDbLine
 10
3.553612988219412
 20
0.7928283276633588
 30
0.0316182244581438
 11
3.553329683028621
 21
0.8572150428344534
 31
0.1083520663705474
  0
LINE
  5
1E0
330
1F
100
AcDbEntity
  8
MODEL_HOLE_60
100
AcDbLine
 10
3.554446125198441
 20
0.6033624447737145
 30
0.0317128192214391
 11
3.554257893495666
 21
0.6476305416052357
 31
0.1083881052318399
  0
LINE
  5
1E1
330
1F
100
AcDbEntity
  8
MODEL_HOLE_60
100
AcDbLine
 10
3.554691382550117
 20
0.5456279387807177
 30
0.0317128192228069
 11
3.554503461414021
 21
0.5898229969280733
 31
0.1082615973776846
  0
LINE
  5
1E2
330
1F
100
AcDbEntity
  8
MODEL_HOLE_60
100
AcDbLine
 10
3.554936874562691
 20
0.4878934337866179
 30
0.0317128192241782
 11
3.554749595819387
 21
0.5319374147988478
 31
0.1079999217396086
  0
LINE
  5
1E3
330
1F
100
AcDbEntity
  8
MODEL_HOLE_70
100
AcDbLine
 10
3.555173630065723
 20
0.4377339958107358
 30
0.0321003663967094
 11
3.555047557206069
 21
0.4652699472360444
 31
0.1077555641094426
  0
LINE
  5
1E4
330
1F
100
AcDbEntity
  8
MODEL_HOLE_70
100
AcDbLine
 10
3.555393019812064
 20
0.3844829953381117
 30
0.0319834213184446
 11
3.555267080389547
 21
0.4119898023582715
 31
0.1075585445968626
  0
LINE
  5
1E5
330
1F
100
AcDbEntity
  8
MODEL_HOLE_70
100
AcDbLine
 10
3.555612409558409
 20
0.3312319948654787
 30
0.0318664762401799
 11
3.555486896552053
 21
0.3586456670532696
 31
0.1071857109877083
  0
LINE
  5
1E6
330
1F
100
AcDbEntity
  8
MODEL_HOLE_80
100
AcDbLine
 10
3.556016747789751
 20
0.281120455800461
 30
0.0325934451669978
 11
3.555934520827409
 21
0.2942117573316638
 31
0.1068393700469737
  0
LINE
  5
1E7
330
1F
100
AcDbEntity
  8
MODEL_HOLE_80
100
AcDbLine
 10
3.556340935158295
 20
0.2303501602324465
 30
0.0325934451630152
 11
3.556258708667293
 21
0.243441386721984
 31
0.1068389444521564
  0
LINE
  5
1E8
330
1F
100
AcDbEntity
  8
MODEL_HOLE_80
100
AcDbLine
 10
3.556665122526844
 20
0.1795798646644338
 30
0.0325934451590326
 11
3.556582807448122
 21
0.1926851951471997
 31
0.1069189337463597
  0
LINE
  5
1E9
330
1F
100
AcDbEntity
  8
MODEL_HOLE_90
100
AcDbLine
 10
3.556980106865505
 20
0.1295808568212076
 30
0.0321623423487781
 11
3.556980106865505
 21
0.1295808568212076
 31
0.1068671789032808
  0
LINE
  5
1EA
330
1F
100
AcDbEntity
  8
MODEL_HOLE_90
100
AcDbLine
 10
3.55694662848338
 20
0.0795808680292316
 30
0.0321623423487781
 11
3.55694662848338
 21
0.0795808680292316
 31
0.1068595713745152
  0
LINE
  5
1EB
330
1F
100
AcDbEntity
  8
MODEL_HOLE_90
100
AcDbLine
 10
3.556913150101251
 20
0.0295808792372574
 30
0.0321623423487781
 11
3.556913150101251
 21
0.0295808792372574
 31
0.1067919711000741
  0
LINE
  5
1EC
330
1F
100
AcDbEntity
  8
TIMBER_HOLE_AXES
100
AcDbLine
 10
3.553764271181476
 20
0.3334738997069477
 30
0.0235044975538977
 11
3.551635660465842
 21
0.3633387198580591
 31
0.1073105000060366
  0
LINE
  5
1ED
330
1F
100
AcDbEntity
  8
TIMBER_HOLE_AXES
100
AcDbLine
 10
3.557832033922369
 20
0.2914071366111637
 30
0.1068572481235484
 11
3.556891426349579
 21
0.2766652534037233
 31
0.0163382328264826
  0
LINE
  5
1EE
330
1F
100
AcDbEntity
  8
TIMBER_HOLE_AXES
100
AcDbLine
 10
3.558154519133145
 20
0.231244319648261
 30
0.0276570286214514
 11
3.556457530521853
 21
0.2455408725320956
 31
0.1068302003613011
  0
LINE
  5
1EF
330
1F
100
AcDbEntity
  8
TIMBER_HOLE_AXES
100
AcDbLine
 10
3.556525830708849
 20
0.1926503648016258
 30
0.1069196742669989
 11
3.558215323628628
 21
0.1785827622622884
 31
0.0246938582368095
  0
LINE
  5
1F0
330
1F
100
AcDbEntity
  8
TIMBER_HOLE_AXES
100
AcDbLine
 10
3.553627498947665
 20
0.132987653997346
 30
0.0366027056342942
 11
3.554653877392946
 21
0.1329527674404161
 31
0.1068917732049246
  0
LINE
  5
1F1
330
1F
100
AcDbEntity
  8
TIMBER_HOLE_AXES
100
AcDbLine
 10
3.558065069756077
 20
0.0840365053284033
 30
0.0265044534235792
 11
3.558065069756077
 21
0.0840365053284033
 31
0.1068583602822528
  0
LINE
  5
1F2
330
1F
100
AcDbEntity
  8
TIMBER_HOLE_AXES
100
AcDbLine
 10
3.555085034320136
 20
0.0334450486632454
 30
0.0266113379704853
 11
3.555005477675964
 21
0.0329272585912879
 31
0.1067900418364695
  0
LINE
  5
1F3
330
1F
100
AcDbEntity
  8
TIMBER_HOLE_AXES
100
AcDbLine
 10
3.550969519047627
 20
1.019179034642627
 30
0.1084851708580465
 11
3.553984064735173
 21
0.9703846432806325
 31
0.0639295417322748
  0
LINE
  5
1F4
330
1F
100
AcDbEntity
  8
TIMBER_HOLE_AXES
100
AcDbLine
 10
3.557612252514531
 20
0.858656840693544
 30
0.0406709806539752
 11
3.555065598998389
 21
0.9414851888311357
 31
0.1085332202068919
  0
LINE
  5
1F5
330
1F
100
AcDbEntity
  8
TIMBER_HOLE_AXES
100
AcDbLine
 10
3.552752089333228
 20
0.8545847999296967
 30
0.1084062748879372
 11
3.554626874582265
 21
0.7953609979700511
 31
0.0378039944385154
  0
LINE
  5
1F6
330
1F
100
AcDbEntity
  8
TIMBER_HOLE_AXES
100
AcDbLine
 10
3.554769551066319
 20
0.7296263827505873
 30
0.0351865860670283
 11
3.553226053513075
 21
0.7900360045022135
 31
0.1084270232356218
  0
LINE
  5
1F7
330
1F
100
AcDbEntity
  8
TIMBER_HOLE_AXES
100
AcDbLine
 10
3.554247251911433
 20
0.6585496193332938
 30
0.0285409785308522
 11
3.552559310924981
 21
0.724678876372276
 31
0.1087222743132942
  0
LINE
  5
1F8
330
1F
100
AcDbEntity
  8
TIMBER_HOLE_AXES
100
AcDbLine
 10
3.551362423058555
 20
0.6477828734343047
 30
0.1084382466874654
 11
3.553441513861489
 21
0.6016793398587081
 31
0.0277855537031247
  0
LINE
  5
1F9
330
1F
100
AcDbEntity
  8
TIMBER_HOLE_AXES
100
AcDbLine
 10
3.55497846485719
 20
0.5446983500167724
 30
0.0242171298378852
 11
3.55110884318554
 21
0.5922905667759863
 31
0.1082748268620083
  0
LINE
  5
1FA
330
1F
100
AcDbEntity
  8
TIMBER_HOLE_AXES
100
AcDbLine
 10
3.553600862858717
 20
0.4892424850490817
 30
0.0308204153872738
 11
3.552942797866181
 21
0.5336939748121905
 31
0.1080022396951323
  0
LINE
  5
1FB
330
1F
100
AcDbEntity
  8
TIMBER_HOLE_AXES
100
AcDbLine
 10
3.554621722324163
 20
0.4387641377495628
 30
0.0231732149759096
 11
3.553178812027634
 21
0.4684658295915454
 31
0.1077460756715856
  0
LINE
  5
1FC
330
1F
100
AcDbEntity
  8
TIMBER_HOLE_AXES
100
AcDbLine
 10
3.553899714591433
 20
0.3847726612863722
 30
0.0249189438740525
 11
3.553192274663341
 21
0.4133496579043805
 31
0.1075300341379616
  0
LINE
  5
1FD
330
1F
100
AcDbEntity
  8
TIMBER_HOLE_AXES
100
AcDbLine
 10
3.549396151027579
 20
1.309475856057564
 30
0.0379966196859034
 11
3.545445201902587
 21
1.426053192136635
 31
0.1063030314146867
  0
LINE
  5
1FE
330
1F
100
AcDbEntity
  8
TIMBER_HOLE_AXES
100
AcDbLine
 10
3.550779158156734
 20
1.216265809766038
 30
0.0439691750756399
 11
3.546534764321744
 21
1.324595107478496
 31
0.1070845546474553
  0
LINE
  5
1FF
330
1F
100
AcDbEntity
  8
TIMBER_HOLE_AXES
100
AcDbLine
 10
3.548014227017656
 20
1.226787248671993
 30
0.106767832696416
 11
3.553573105616397
 21
1.105326782190565
 31
0.0353755274471131
  0
LINE
  5
200
330
1F
100
AcDbEntity
  8
TIMBER_HOLE_AXES
100
AcDbLine
 10
3.549079263062038
 20
1.097697509039885
 30
0.1076184784242687
 11
3.553781861940762
 21
1.010922947628457
 31
0.0365898909848982
  0
LINE
  5
201
330
1F
100
AcDbEntity
  8
TIMBER_HOLE_AXES
100
AcDbLine
 10
4.348647351724413
 20
0.0563565072988199
 30
0.0166697469126275
 11
4.349059608433962
 21
0.0552010573364754
 31
0.1088179957947586
  0
LINE
  5
202
330
1F
100
AcDbEntity
  8
TIMBER_HOLE_AXES
100
AcDbLine
 10
4.351591308511284
 20
0.1062537752862838
 30
0.0163922969568635
 11
4.351533990223937
 21
0.1042151024382019
 31
0.1082941775210716
  0
LINE
  5
203
330
1F
100
AcDbEntity
  8
TIMBER_HOLE_AXES
100
AcDbLine
 10
4.35124667461348
 20
0.1564017061195777
 30
0.1074275469483389
 11
4.350856567528515
 21
0.1573837068920749
 31
0.0260250711851807
  0
LINE
  5
204
330
1F
100
AcDbEntity
  8
TIMBER_HOLE_AXES
100
AcDbLine
 10
4.357346360297061
 20
0.2049008767222187
 30
0.0149864167211126
 11
4.350638864748334
 21
0.2172906361128604
 31
0.1069788424002489
  0
LINE
  5
205
330
1F
100
AcDbEntity
  8
TIMBER_HOLE_AXES
100
AcDbLine
 10
4.351452831950547
 20
0.2658742193474746
 30
0.1067955893352736
 11
4.351916841660572
 21
0.249564604266399
 31
0.0076670145653754
  0
LINE
  5
206
330
1F
100
AcDbEntity
  8
TIMBER_HOLE_AXES
100
AcDbLine
 10
4.355396844133478
 20
0.3178401181371857
 30
0.1061468245297987
 11
4.3534580069427
 21
0.3017720140599751
 31
0.0078119462135308
  0
LINE
  5
207
330
1F
100
AcDbEntity
  8
TIMBER_HOLE_AXES
100
AcDbLine
 10
4.354516453712256
 20
0.3838440229196376
 30
0.1048675717694406
 11
4.353156131405033
 21
0.3560080879868259
 31
0.0259784831155235
  0
LINE
  5
208
330
1F
100
AcDbEntity
  8
TIMBER_HOLE_AXES
100
AcDbLine
 10
4.354929632888614
 20
0.4401560959849959
 30
0.1037877801412746
 11
4.356754252638496
 21
0.4087488741249814
 31
0.0168912618346325
  0
LINE
  5
209
330
1F
100
AcDbEntity
  8
TIMBER_HOLE_AXES
100
AcDbLine
 10
4.355742286397567
 20
0.4902528252452418
 30
0.1031785605844083
 11
4.356986088329736
 21
0.4611610236573247
 31
0.0252163209089551
  0
LINE
  5
20A
330
1F
100
AcDbEntity
  8
TIMBER_HOLE_AXES
100
AcDbLine
 10
4.356184599461799
 20
0.5107857084603058
 30
0.0218312918283167
 11
4.3550574239432
 21
0.5569238420252525
 31
0.1027685842441882
  0
LINE
  5
20B
330
1F
100
AcDbEntity
  8
TIMBER_HOLE_AXES
100
AcDbLine
 10
4.354981896239615
 20
0.561737191834923
 30
0.01305764940954
 11
4.352961617690848
 21
0.6107459294254163
 31
0.1016359490660683
  0
LINE
  5
20C
330
1F
100
AcDbEntity
  8
TIMBER_HOLE_AXES
100
AcDbLine
 10
4.357450799821672
 20
0.6739195304071366
 30
0.1013330762028624
 11
4.358059290152275
 21
0.6198014869468782
 31
0.006360871898502
  0
LINE
  5
20D
330
1F
100
AcDbEntity
  8
TIMBER_HOLE_AXES
100
AcDbLine
 10
4.357651628014113
 20
0.6812599050745902
 30
0.0128471744012979
 11
4.356210547962553
 21
0.7523957431861774
 31
0.1003759876611222
  0
LINE
  5
20E
330
1F
100
AcDbEntity
  8
TIMBER_HOLE_AXES
100
AcDbLine
 10
4.354897954326558
 20
0.8257353812036072
 30
0.099089258236506
 11
4.355694064947529
 21
0.7571643297875452
 31
0.0167421321676944
  0
LINE
  5
20F
330
1F
100
AcDbEntity
  8
TIMBER_HOLE_AXES
100
AcDbLine
 10
4.356495319706413
 20
0.8846934977964835
 30
0.0977456607386453
 11
4.357838031302541
 21
0.8106387822627532
 31
0.0153401465255559
  0
LINE
  5
210
330
1F
100
AcDbEntity
  8
TIMBER_HOLE_AXES
100
AcDbLine
 10
4.361322377630385
 20
0.8703574200502597
 30
0.0068856692613645
 11
4.359073758576145
 21
0.9765923047317502
 31
0.0968118475927675
  0
LINE
  5
211
330
1F
100
AcDbEntity
  8
TIMBER_HOLE_AXES
100
AcDbLine
 10
4.359896611050274
 20
1.047697335768753
 30
0.0929916872063544
 11
4.358500253289551
 21
0.9594313306278757
 31
0.0154878111072026
  0
LINE
  5
212
330
1F
100
AcDbEntity
  8
TIMBER_HOLE_AXES
100
AcDbLine
 10
4.354893052868937
 20
1.038533385445376
 30
0.0243640977791579
 11
4.352984835442151
 21
1.128105766511508
 31
0.0939034413237449
  0
LINE
  5
213
330
1F
100
AcDbEntity
  8
TIMBER_HOLE_AXES
100
AcDbLine
 10
4.349974064373575
 20
1.278044879828575
 30
0.0913565109070481
 11
4.359927611901122
 21
1.155739774135352
 31
0.0210260413149477
  0
LINE
  5
214
330
1F
100
AcDbEntity
  8
TIMBER_HOLE_AXES
100
AcDbLine
 10
4.346919533973952
 20
1.386605948568496
 30
0.0878480171975618
 11
4.355795212156956
 21
1.242344136845171
 31
0.0065998527724644
  0
LINE
  5
215
330
1F
100
AcDbEntity
  8
TIMBER_HOLE_AXES
100
AcDbLine
 10
4.352042498571188
 20
1.342459339434786
 30
0.0058028716004703
 11
4.34600306900174
 21
1.485317554365441
 31
0.0865382604729224
  0
LINE
  5
216
330
1F
100
AcDbEntity
  8
MODEL_HOLE_30
100
AcDbLine
 10
4.354544520937389
 20
1.342369972774553
 30
0.0061920852723959
 11
4.354544520937389
 21
1.482436772405687
 31
0.0870596897439598
  0
LINE
  5
217
330
1F
100
AcDbEntity
  8
MODEL_HOLE_30
100
AcDbLine
 10
4.356021089117413
 20
1.246191489321244
 30
0.0094696931502358
 11
4.356021089117413
 21
1.382926611990063
 31
0.0884137530307557
  0
LINE
  5
218
330
1F
100
AcDbEntity
  8
MODEL_HOLE_30
100
AcDbLine
 10
4.358367581853206
 20
1.134215190871353
 30
0.0085781161197692
 11
4.358367581853202
 21
1.277675423804557
 31
0.0914049202217617
  0
LINE
  5
219
330
1F
100
AcDbEntity
  8
MODEL_HOLE_40
100
AcDbLine
 10
4.363425585778117
 20
0.8842151908713527
 30
0.0140520410088617
 11
4.363425585778117
 21
0.9827602410259777
 31
0.0967411562479562
  0
LINE
  5
21A
330
1F
100
AcDbEntity
  8
MODEL_HOLE_40
100
AcDbLine
 10
4.36345391423993
 20
0.9619334319640567
 30
0.0139326049501496
 11
4.36345391423993
 21
1.057725443234149
 31
0.0943116462766137
  0
LINE
  5
21B
330
1F
100
AcDbEntity
  8
MODEL_HOLE_40
100
AcDbLine
 10
4.361408547847134
 20
1.039421746456871
 30
0.0142051002005427
 11
4.361408547847131
 21
1.134965289658333
 31
0.0943756520622594
  0
LINE
  5
21C
330
1F
100
AcDbEntity
  8
MODEL_HOLE_50
100
AcDbLine
 10
4.360948054045064
 20
0.6899815530533457
 30
0.0149328303007129
 11
4.361587105265553
 21
0.7614095429808829
 31
0.1000608007404364
  0
LINE
  5
21D
330
1F
100
AcDbEntity
  8
MODEL_HOLE_50
100
AcDbLine
 10
4.360231113586188
 20
0.7562065383169179
 30
0.0147748763248574
 11
4.360863863203104
 21
0.826930185834601
 31
0.0990634105728814
  0
LINE
  5
21E
330
1F
100
AcDbEntity
  8
MODEL_HOLE_50
100
AcDbLine
 10
4.362168933918159
 20
0.8185147076246446
 30
0.0163959474876909
 11
4.362777323742691
 21
0.8865156140707535
 31
0.0974395154180132
  0
LINE
  5
21F
330
1F
100
AcDbEntity
  8
MODEL_HOLE_90
100
AcDbLine
 10
4.352439534082275
 20
0.0592158584433742
 30
0.0245362452401609
 11
4.352439534082275
 21
0.0592158584433742
 31
0.1088113273689578
  0
LINE
  5
220
330
1F
100
AcDbEntity
  8
MODEL_HOLE_80
100
AcDbLine
 10
4.355650880416074
 20
0.2082218688676187
 30
0.0238680098419464
 11
4.355894108857821
 21
0.222902748362249
 31
0.1071388409172752
  0
LINE
  5
221
330
1F
100
AcDbEntity
  8
MODEL_HOLE_90
100
AcDbLine
 10
4.354041403806277
 20
0.109184694981054
 30
0.0241766955873304
 11
4.354041403806277
 21
0.109184694981054
 31
0.108174521611499
  0
LINE
  5
222
330
1F
100
AcDbEntity
  8
MODEL_HOLE_90
100
AcDbLine
 10
4.354854957968366
 20
0.1591843077559423
 30
0.02386202409979
 11
4.354854957968366
 21
0.1591843077559423
 31
0.1073968201983536
  0
LINE
  5
223
330
1F
100
AcDbEntity
  8
MODEL_HOLE_80
100
AcDbLine
 10
4.357383087952047
 20
0.2592156677085109
 30
0.0216143962081877
 11
4.357631669250181
 21
0.2742196370484171
 31
0.106717812309369
  0
LINE
  5
224
330
1F
100
AcDbEntity
  8
MODEL_HOLE_80
100
AcDbLine
 10
4.357318059424602
 20
0.3097192197326271
 30
0.0222591929729877
 11
4.357562835386644
 21
0.3244935050756999
 31
0.1060598276360402
  0
LINE
  5
225
330
1F
100
AcDbEntity
  8
MODEL_HOLE_70
100
AcDbLine
 10
4.357856393495228
 20
0.3597038339824268
 30
0.0212796599631641
 11
4.357856393495228
 21
0.390094595509745
 31
0.1047775910195003
  0
LINE
  5
226
330
1F
100
AcDbEntity
  8
MODEL_HOLE_70
100
AcDbLine
 10
4.357954220579404
 20
0.412975574982716
 30
0.0205567343333118
 11
4.357954220579404
 21
0.4432680177117136
 31
0.1037845367113561
  0
LINE
  5
227
330
1F
100
AcDbEntity
  8
MODEL_HOLE_70
100
AcDbLine
 10
4.358585030011283
 20
0.4661936365684598
 30
0.0208155301054153
 11
4.35858503001128
 21
0.4962007540743842
 31
0.1032594078758651
  0
LINE
  5
228
330
1F
100
AcDbEntity
  8
MODEL_HOLE_60
100
AcDbLine
 10
4.359410119128359
 20
0.5161681695438078
 30
0.0204675890672759
 11
4.359410119128359
 21
0.5636458176046633
 31
0.1027012877325496
  0
LINE
  5
229
330
1F
100
AcDbEntity
  8
MODEL_HOLE_60
100
AcDbLine
 10
4.360696640786216
 20
0.573815340502466
 30
0.0191040873086216
 11
4.360696640786212
 21
0.6215848341844579
 31
0.1018432774176723
  0
LINE
  5
22A
330
1F
100
AcDbEntity
  8
MODEL_HOLE_60
100
AcDbLine
 10
4.361228588268673
 20
0.6315589721892652
 30
0.01658810450542
 11
4.361228588268673
 21
0.6803951132825423
 31
0.1011747821245777
  0
LINE
  5
22B
330
1F
100
AcDbEntity
  8
TIMBER_HOLE_AXES
100
AcDbLine
 10
5.095080216877356
 20
0.6268838774339658
 30
0.0266580916158388
 11
5.096242077986902
 21
0.6746751042821648
 31
0.1076778441490359
  0
LINE
  5
22C
330
1F
100
AcDbEntity
  8
TIMBER_HOLE_AXES
100
AcDbLine
 10
5.09440888985769
 20
0.6894823896876838
 30
0.0271714161594937
 11
5.095642403260949
 21
0.7568025995775685
 31
0.1074274941308655
  0
LINE
  5
22D
330
1F
100
AcDbEntity
  8
TIMBER_HOLE_AXES
100
AcDbLine
 10
5.093482624157569
 20
0.7532070665138901
 30
0.028621350196614
 11
5.094874424173042
 21
0.8211229310414314
 31
0.1072958306604268
  0
LINE
  5
22E
330
1F
100
AcDbEntity
  8
TIMBER_HOLE_AXES
100
AcDbLine
 10
5.096815149819939
 20
0.8904625147519898
 30
0.1069911627208655
 11
5.097256974660599
 21
0.8110535916943187
 31
0.0290302636163836
  0
LINE
  5
22F
330
1F
100
AcDbEntity
  8
TIMBER_HOLE_AXES
100
AcDbLine
 10
5.099950815964012
 20
0.8861240538951831
 30
0.0228520960416128
 11
5.092027977191107
 21
0.9792573809222782
 31
0.1061247344382713
  0
LINE
  5
230
330
1F
100
AcDbEntity
  8
TIMBER_HOLE_AXES
100
AcDbLine
 10
5.100264794037352
 20
0.962515921460235
 30
0.0338029747155198
 11
5.094576396763568
 21
1.052019794944075
 31
0.106425123399016
  0
LINE
  5
231
330
1F
100
AcDbEntity
  8
TIMBER_HOLE_AXES
100
AcDbLine
 10
5.095125708695526
 20
1.136661450973995
 30
0.1059905899422704
 11
5.100255061485938
 21
1.044439817408949
 31
0.0276396872118445
  0
LINE
  5
232
330
1F
100
AcDbEntity
  8
TIMBER_HOLE_AXES
100
AcDbLine
 10
5.10103175680034
 20
1.129049086179244
 30
0.0227500940927241
 11
5.09104935589078
 21
1.269770062607695
 31
0.1049290010481934
  0
LINE
  5
233
330
1F
100
AcDbEntity
  8
TIMBER_HOLE_AXES
100
AcDbLine
 10
5.099800019223099
 20
1.245760198333237
 30
0.0283053751660821
 11
5.089899731960884
 21
1.377367234146842
 31
0.1043322593138324
  0
LINE
  5
234
330
1F
100
AcDbEntity
  8
TIMBER_HOLE_AXES
100
AcDbLine
 10
5.100586838800164
 20
1.34011176742847
 30
0.0254389234528541
 11
5.093130099235682
 21
1.468076610168134
 31
0.103164548654982
  0
LINE
  5
235
330
1F
100
AcDbEntity
  8
TIMBER_HOLE_AXES
100
AcDbLine
 10
5.101443935793569
 20
0.0592297412669831
 30
0.0274200895877106
 11
5.10197829240597
 21
0.0605196998736615
 31
0.1098346777495043
  0
LINE
  5
236
330
1F
100
AcDbEntity
  8
TIMBER_HOLE_AXES
100
AcDbLine
 10
5.099761383579086
 20
0.1080768378121038
 30
0.0186202181183493
 11
5.099761383579086
 21
0.1095781374742488
 31
0.1098006868784774
  0
LINE
  5
237
330
1F
100
AcDbEntity
  8
TIMBER_HOLE_AXES
100
AcDbLine
 10
5.099616954000838
 20
0.158494302437906
 30
0.0177634598198876
 11
5.099940876178685
 21
0.1613154546073128
 31
0.1097983897080308
  0
LINE
  5
238
330
1F
100
AcDbEntity
  8
TIMBER_HOLE_AXES
100
AcDbLine
 10
5.098159981961269
 20
0.2276820759790494
 30
0.109342724446553
 11
5.097779320746852
 21
0.212313396629642
 31
0.028135622050881
  0
LINE
  5
239
330
1F
100
AcDbEntity
  8
TIMBER_HOLE_AXES
100
AcDbLine
 10
5.096538092711464
 20
0.2731844976684172
 30
0.1090861008887567
 11
5.096136433177143
 21
0.2576982421914105
 31
0.0232644159762611
  0
LINE
  5
23A
330
1F
100
AcDbEntity
  8
TIMBER_HOLE_AXES
100
AcDbLine
 10
5.097206285142434
 20
0.3230019646235522
 30
0.1087756043863829
 11
5.096773266562121
 21
0.3055194277610003
 31
0.0163990163363443
  0
LINE
  5
23B
330
1F
100
AcDbEntity
  8
TIMBER_HOLE_AXES
100
AcDbLine
 10
5.096288545928783
 20
0.3893453206986166
 30
0.1087083700599215
 11
5.095904318488884
 21
0.3590352318632668
 31
0.0309865818021951
  0
LINE
  5
23C
330
1F
100
AcDbEntity
  8
TIMBER_HOLE_AXES
100
AcDbLine
 10
5.095204220905118
 20
0.4133677751099016
 30
0.0302940915838331
 11
5.09541364943554
 21
0.4429835724034241
 31
0.1084377905566315
  0
LINE
  5
23D
330
1F
100
AcDbEntity
  8
TIMBER_HOLE_AXES
100
AcDbLine
 10
5.094824944374968
 20
0.4653017371642303
 30
0.0226226658890774
 11
5.09436390371526
 21
0.4971244291682781
 31
0.1079459610817421
  0
LINE
  5
23E
330
1F
100
AcDbEntity
  8
TIMBER_HOLE_AXES
100
AcDbLine
 10
5.092256181814926
 20
0.5654582538014106
 30
0.1077438367693929
 11
5.090930429783106
 21
0.5105571924999248
 31
0.017283326456079
  0
LINE
  5
23F
330
1F
100
AcDbEntity
  8
TIMBER_HOLE_AXES
100
AcDbLine
 10
5.094181009943433
 20
0.6157480092299581
 30
0.1075726515885595
 11
5.091866413524167
 21
0.5679724134581479
 31
0.0261018866643795
  0
LINE
  5
240
330
1F
100
AcDbEntity
  8
MODEL_HOLE_90
100
AcDbLine
 10
5.103559073844542
 20
0.1046148381884979
 30
0.0258467915332568
 11
5.103559073844542
 21
0.1046148381884979
 31
0.1099415729222454
  0
LINE
  5
241
330
1F
100
AcDbEntity
  8
MODEL_HOLE_90
100
AcDbLine
 10
5.103559073844541
 20
0.0546148381885008
 30
0.0258467915332568
 11
5.103559073844541
 21
0.0546148381885008
 31
0.1099263748892309
  0
LINE
  5
242
330
1F
100
AcDbEntity
  8
MODEL_HOLE_90
100
AcDbLine
 10
5.10264446126911
 20
0.1546048756414429
 30
0.0256945566067418
 11
5.10264446126911
 21
0.1546048756414429
 31
0.1098192954702387
  0
LINE
  5
243
330
1F
100
AcDbEntity
  8
MODEL_HOLE_80
100
AcDbLine
 10
5.102101831939377
 20
0.2046154103930906
 30
0.0256553086829405
 11
5.102101831939377
 21
0.219396093021345
 31
0.1094807253541007
  0
LINE
  5
244
330
1F
100
AcDbEntity
  8
MODEL_HOLE_80
100
AcDbLine
 10
5.10086923219327
 20
0.2552714055240948
 30
0.0255245791839217
 11
5.10086923219327
 21
0.2700285948603156
 31
0.1092167587750802
  0
LINE
  5
245
330
1F
100
AcDbEntity
  8
MODEL_HOLE_80
100
AcDbLine
 10
5.100261419820265
 20
0.3067021008649373
 30
0.0231682071099747
 11
5.100261419820265
 21
0.3218189297574714
 31
0.1089000039784762
  0
LINE
  5
246
330
1F
100
AcDbEntity
  8
MODEL_HOLE_70
100
AcDbLine
 10
5.096974302900494
 20
0.4631704777221195
 30
0.0234020972665025
 11
5.096318181818325
 21
0.4939448368394963
 31
0.10797316874636
  0
LINE
  5
247
330
1F
100
AcDbEntity
  8
MODEL_HOLE_70
100
AcDbLine
 10
5.098084972919291
 20
0.4099306092464587
 30
0.0232851521882377
 11
5.097424144107669
 21
0.4409257772370658
 31
0.1084630289286075
  0
LINE
  5
248
330
1F
100
AcDbEntity
  8
MODEL_HOLE_70
100
AcDbLine
 10
5.09919564293809
 20
0.3566907407707909
 30
0.0231682071099729
 11
5.09853143905731
 21
0.3878442112349827
 31
0.1087811151618941
  0
LINE
  5
249
330
1F
100
AcDbEntity
  8
MODEL_HOLE_60
100
AcDbLine
 10
5.096949868892454
 20
0.6286405314437822
 30
0.0232851521855003
 11
5.096949868892455
 21
0.6773806875874175
 31
0.107705578995116
  0
LINE
  5
24A
330
1F
100
AcDbEntity
  8
MODEL_HOLE_60
100
AcDbLine
 10
5.096949634229431
 20
0.5709055045245108
 30
0.0232851521868681
 11
5.096949634229431
 21
0.6195981532224888
 31
0.1076232936868678
  0
LINE
  5
24B
330
1F
100
AcDbEntity
  8
MODEL_HOLE_60
100
AcDbLine
 10
5.096949634229431
 20
0.5131704776063408
 30
0.0232851521882395
 11
5.096949634229431
 21
0.5619813391177537
 31
0.1078280442872128
  0
LINE
  5
24C
330
1F
100
AcDbEntity
  8
MODEL_HOLE_50
100
AcDbLine
 10
5.096297827635496
 20
0.6897110733216714
 30
0.0227325393980784
 11
5.096297827635496
 21
0.7607903047660702
 31
0.1074414688307769
  0
LINE
  5
24D
330
1F
100
AcDbEntity
  8
MODEL_HOLE_50
100
AcDbLine
 10
5.096299023793712
 20
0.7549326916505699
 30
0.0227708152745165
 11
5.096299023793712
 21
0.8257224088072075
 31
0.1071347150146652
  0
LINE
  5
24E
330
1F
100
AcDbEntity
  8
MODEL_HOLE_50
100
AcDbLine
 10
5.096300318916139
 20
0.8201543099790065
 30
0.0228090911495869
 11
5.096300318916139
 21
0.8907685318080176
 31
0.1069638437025543
  0
LINE
  5
24F
330
1F
100
AcDbEntity
  8
MODEL_HOLE_40
100
AcDbLine
 10
5.094989114306944
 20
0.8893986920890509
 30
0.0239883911965578
 11
5.093622565581499
 21
0.9871399471042022
 31
0.1060110578048784
  0
LINE
  5
250
330
1F
100
AcDbEntity
  8
MODEL_HOLE_40
100
AcDbLine
 10
5.093903097026229
 20
0.96713168192694
 30
0.0239501153075182
 11
5.092531488958589
 21
1.065234802162452
 31
0.1062764525646573
  0
LINE
  5
251
330
1F
100
AcDbEntity
  8
MODEL_HOLE_40
100
AcDbLine
 10
5.092082495485308
 20
1.044984064670439
 30
0.0215569461060384
 11
5.090678353875757
 21
1.145414119289777
 31
0.1058360039738799
  0
LINE
  5
252
330
1F
100
AcDbEntity
  8
MODEL_HOLE_30
100
AcDbLine
 10
5.091887037064873
 20
1.129063851998509
 30
0.0214926189772018
 11
5.09188703706487
 21
1.273450311416921
 31
0.1048541801897583
  0
LINE
  5
253
330
1F
100
AcDbEntity
  8
MODEL_HOLE_30
100
AcDbLine
 10
5.091887037064874
 20
1.229256871797478
 30
0.0216040590100941
 11
5.091887037064874
 21
1.372597465491609
 31
0.1043617893652021
  0
LINE
  5
254
330
1F
100
AcDbEntity
  8
MODEL_HOLE_30
100
AcDbLine
 10
5.091887037064874
 20
1.329582700658811
 30
0.0218269390782377
 11
5.091887037064874
 21
1.470076295363407
 31
0.102940953800354
  0
LINE
  5
255
330
1F
100
AcDbEntity
  8
TIMBER_HOLE_AXES
100
AcDbLine
 10
5.095080216877356
 20
0.6268838774339658
 30
0.0266580916158388
 11
5.096242077986902
 21
0.6746751042821648
 31
0.1076778441490359
  0
LINE
  5
256
330
1F
100
AcDbEntity
  8
TIMBER_HOLE_AXES
100
AcDbLine
 10
5.09440888985769
 20
0.6894823896876838
 30
0.0271714161594937
 11
5.095642403260949
 21
0.7568025995775685
 31
0.1074274941308655
  0
LINE
  5
257
330
1F
100
AcDbEntity
  8
TIMBER_HOLE_AXES
100
AcDbLine
 10
5.093482624157569
 20
0.7532070665138901
 30
0.028621350196614
 11
5.094874424173042
 21
0.8211229310414314
 31
0.1072958306604268
  0
LINE
  5
258
330
1F
100
AcDbEntity
  8
TIMBER_HOLE_AXES
100
AcDbLine
 10
5.096815149819939
 20
0.8904625147519898
 30
0.1069911627208655
 11
5.097256974660599
 21
0.8110535916943187
 31
0.0290302636163836
  0
LINE
  5
259
330
1F
100
AcDbEntity
  8
TIMBER_HOLE_AXES
100
AcDbLine
 10
5.099950815964012
 20
0.8861240538951831
 30
0.0228520960416128
 11
5.092027977191107
 21
0.9792573809222782
 31
0.1061247344382713
  0
LINE
  5
25A
330
1F
100
AcDbEntity
  8
TIMBER_HOLE_AXES
100
AcDbLine
 10
5.100264794037352
 20
0.962515921460235
 30
0.0338029747155198
 11
5.094576396763568
 21
1.052019794944075
 31
0.106425123399016
  0
LINE
  5
25B
330
1F
100
AcDbEntity
  8
TIMBER_HOLE_AXES
100
AcDbLine
 10
5.095125708695526
 20
1.136661450973995
 30
0.1059905899422704
 11
5.100255061485938
 21
1.044439817408949
 31
0.0276396872118445
  0
LINE
  5
25C
330
1F
100
AcDbEntity
  8
TIMBER_HOLE_AXES
100
AcDbLine
 10
5.10103175680034
 20
1.129049086179244
 30
0.0227500940927241
 11
5.09104935589078
 21
1.269770062607695
 31
0.1049290010481934
  0
LINE
  5
25D
330
1F
100
AcDbEntity
  8
TIMBER_HOLE_AXES
100
AcDbLine
 10
5.099800019223099
 20
1.245760198333237
 30
0.0283053751660821
 11
5.089899731960884
 21
1.377367234146842
 31
0.1043322593138324
  0
LINE
  5
25E
330
1F
100
AcDbEntity
  8
TIMBER_HOLE_AXES
100
AcDbLine
 10
5.100586838800164
 20
1.34011176742847
 30
0.0254389234528541
 11
5.093130099235682
 21
1.468076610168134
 31
0.103164548654982
  0
LINE
  5
25F
330
1F
100
AcDbEntity
  8
TIMBER_HOLE_AXES
100
AcDbLine
 10
5.101443935793569
 20
0.0592297412669831
 30
0.0274200895877106
 11
5.10197829240597
 21
0.0605196998736615
 31
0.1098346777495043
  0
LINE
  5
260
330
1F
100
AcDbEntity
  8
TIMBER_HOLE_AXES
100
AcDbLine
 10
5.099761383579086
 20
0.1080768378121038
 30
0.0186202181183493
 11
5.099761383579086
 21
0.1095781374742488
 31
0.1098006868784774
  0
LINE
  5
261
330
1F
100
AcDbEntity
  8
TIMBER_HOLE_AXES
100
AcDbLine
 10
5.099616954000838
 20
0.158494302437906
 30
0.0177634598198876
 11
5.099940876178685
 21
0.1613154546073128
 31
0.1097983897080308
  0
LINE
  5
262
330
1F
100
AcDbEntity
  8
TIMBER_HOLE_AXES
100
AcDbLine
 10
5.098159981961269
 20
0.2276820759790494
 30
0.109342724446553
 11
5.097779320746852
 21
0.212313396629642
 31
0.028135622050881
  0
LINE
  5
263
330
1F
100
AcDbEntity
  8
TIMBER_HOLE_AXES
100
AcDbLine
 10
5.096538092711464
 20
0.2731844976684172
 30
0.1090861008887567
 11
5.096136433177143
 21
0.2576982421914105
 31
0.0232644159762611
  0
LINE
  5
264
330
1F
100
AcDbEntity
  8
TIMBER_HOLE_AXES
100
AcDbLine
 10
5.097206285142434
 20
0.3230019646235522
 30
0.1087756043863829
 11
5.096773266562121
 21
0.3055194277610003
 31
0.0163990163363443
  0
LINE
  5
265
330
1F
100
AcDbEntity
  8
TIMBER_HOLE_AXES
100
AcDbLine
 10
5.096288545928783
 20
0.3893453206986166
 30
0.1087083700599215
 11
5.095904318488884
 21
0.3590352318632668
 31
0.0309865818021951
  0
LINE
  5
266
330
1F
100
AcDbEntity
  8
TIMBER_HOLE_AXES
100
AcDbLine
 10
5.095204220905118
 20
0.4133677751099016
 30
0.0302940915838331
 11
5.09541364943554
 21
0.4429835724034241
 31
0.1084377905566315
  0
LINE
  5
267
330
1F
100
AcDbEntity
  8
TIMBER_HOLE_AXES
100
AcDbLine
 10
5.094824944374968
 20
0.4653017371642303
 30
0.0226226658890774
 11
5.09436390371526
 21
0.4971244291682781
 31
0.1079459610817421
  0
LINE
  5
268
330
1F
100
AcDbEntity
  8
TIMBER_HOLE_AXES
100
AcDbLine
 10
5.092256181814926
 20
0.5654582538014106
 30
0.1077438367693929
 11
5.090930429783106
 21
0.5105571924999248
 31
0.017283326456079
  0
LINE
  5
269
330
1F
100
AcDbEntity
  8
TIMBER_HOLE_AXES
100
AcDbLine
 10
5.094181009943433
 20
0.6157480092299581
 30
0.1075726515885595
 11
5.091866413524167
 21
0.5679724134581479
 31
0.0261018866643795
  0
LINE
  5
26A
330
1F
100
AcDbEntity
  8
TIMBER_HOLE_AXES
100
AcDbLine
 10
5.900812166235213
 20
0.9729614428427382
 30
0.0496909813267583
 11
5.900901822960643
 21
1.05590419293859
 31
0.114247286338762
  0
LINE
  5
26B
330
1F
100
AcDbEntity
  8
TIMBER_HOLE_AXES
100
AcDbLine
 10
5.899472495532057
 20
0.8243755118737237
 30
0.0369816847060362
 11
5.900375942721273
 21
0.8929295897414669
 31
0.1089750400555041
  0
LINE
  5
26C
330
1F
100
AcDbEntity
  8
TIMBER_HOLE_AXES
100
AcDbLine
 10
5.89215024739102
 20
0.655680434804216
 30
0.0288470758033363
 11
5.892647223866827
 21
0.7002845908202193
 31
0.1030958702390528
  0
LINE
  5
26D
330
1F
100
AcDbEntity
  8
TIMBER_HOLE_AXES
100
AcDbLine
 10
5.8980903280754
 20
0.5992948062304588
 30
0.0288609178417061
 11
5.898253956274345
 21
0.6363987426441913
 31
0.1022278278866273
  0
LINE
  5
26E
330
1F
100
AcDbEntity
  8
TIMBER_HOLE_AXES
100
AcDbLine
 10
5.896878279938827
 20
0.5396051389663654
 30
0.0224231970732007
 11
5.897381745945149
 21
0.5837352924950121
 31
0.1007759748920187
  0
LINE
  5
26F
330
1F
100
AcDbEntity
  8
TIMBER_HOLE_AXES
100
AcDbLine
 10
5.896873062068806
 20
0.4847800145375611
 30
0.0093564675712048
 11
5.897650005813508
 21
0.5226017013742172
 31
0.0984981088941455
  0
LINE
  5
270
330
1F
100
AcDbEntity
  8
TIMBER_HOLE_AXES
100
AcDbLine
 10
5.895059979804757
 20
0.4407279626993308
 30
0.0150427725259727
 11
5.895611780386288
 21
0.4686824787391703
 31
0.0971241469933732
  0
LINE
  5
271
330
1F
100
AcDbEntity
  8
TIMBER_HOLE_AXES
100
AcDbLine
 10
5.898656384439769
 20
0.3822985569045123
 30
0.0095761367527625
 11
5.899179827577291
 21
0.4159672130979182
 31
0.0956513527097917
  0
LINE
  5
272
330
1F
100
AcDbEntity
  8
TIMBER_HOLE_AXES
100
AcDbLine
 10
5.895397010599566
 20
0.3363369575016026
 30
0.0213437063588189
 11
5.895532686458947
 21
0.3488219362544651
 31
0.093942463378792
  0
LINE
  5
273
330
1F
100
AcDbEntity
  8
TIMBER_HOLE_AXES
100
AcDbLine
 10
5.893586346193517
 20
0.244857181554309
 30
0.0918260317840813
 11
5.895088282142049
 21
0.2328808457486407
 31
0.0081697048952214
  0
LINE
  5
274
330
1F
100
AcDbEntity
  8
TIMBER_HOLE_AXES
100
AcDbLine
 10
5.889226487970478
 20
0.1299001734357876
 30
-0.0053078572525593
 11
5.890514013328002
 21
0.127114191867264
 31
0.0886067143076132
  0
LINE
  5
275
330
1F
100
AcDbEntity
  8
TIMBER_HOLE_AXES
100
AcDbLine
 10
5.886101570404395
 20
0.0837450181396253
 30
-0.0073419058125226
 11
5.888309248566819
 21
0.0833925370638866
 31
0.0875426124293144
  0
LINE
  5
276
330
1F
100
AcDbEntity
  8
TIMBER_HOLE_AXES
100
AcDbLine
 10
5.898347787264048
 20
1.163531595417615
 30
0.0399273905023896
 11
5.900079155882977
 21
1.313001868136164
 31
0.122085806354173
  0
LINE
  5
277
330
1F
100
AcDbEntity
  8
MODEL_HOLE_30
100
AcDbLine
 10
5.902313217913584
 20
1.163171618675419
 30
0.0467712541494296
 11
5.904571673943008
 21
1.294693048938599
 31
0.1219636813249738
  0
LINE
  5
278
330
1F
100
AcDbEntity
  8
MODEL_HOLE_40
100
AcDbLine
 10
5.900750598589327
 20
0.9713549607731125
 30
0.0411931595260433
 11
5.902260186319958
 21
1.05936474744496
 31
0.1144099849644564
  0
LINE
  5
279
330
1F
100
AcDbEntity
  8
MODEL_HOLE_50
100
AcDbLine
 10
5.900117066862786
 20
0.8914353936894059
 30
0.0389316362857346
 11
5.900592373958918
 21
0.9522085766535042
 31
0.1107309032447978
  0
LINE
  5
27A
330
1F
100
AcDbEntity
  8
MODEL_HOLE_50
100
AcDbLine
 10
5.899600535152758
 20
0.8262752936958204
 30
0.0370877689344282
 11
5.90007445399237
 21
0.8868709729615141
 31
0.1086773276832793
  0
LINE
  5
27B
330
1F
100
AcDbEntity
  8
MODEL_HOLE_60
100
AcDbLine
 10
5.894824023984778
 20
0.6548009182887764
 30
0.0267246834113091
 11
5.894258413871857
 21
0.6993158493646199
 31
0.1030725680258917
  0
LINE
  5
27C
330
1F
100
AcDbEntity
  8
MODEL_HOLE_60
100
AcDbLine
 10
5.895549958279838
 20
0.5970709897002404
 30
0.0269730742058552
 11
5.894991803766533
 21
0.6409991464319997
 31
0.1023145778414238
  0
LINE
  5
27D
330
1F
100
AcDbEntity
  8
MODEL_HOLE_60
100
AcDbLine
 10
5.896276127219346
 20
0.5393410640644234
 30
0.0272214650177793
 11
5.895731924322978
 21
0.5821711936354657
 31
0.1006797342206709
  0
LINE
  5
27E
330
1F
100
AcDbEntity
  8
MODEL_HOLE_70
100
AcDbLine
 10
5.893388881544312
 20
0.4895640972313355
 30
0.0226921152542832
 11
5.892964421896592
 21
0.5174451338864134
 31
0.0982899413964851
  0
LINE
  5
27F
330
1F
100
AcDbEntity
  8
MODEL_HOLE_70
100
AcDbLine
 10
5.894164370137621
 20
0.4363182814526976
 30
0.0228042707555942
 11
5.893748241240982
 21
0.4636521047801807
 31
0.096918359455969
  0
LINE
  5
280
330
1F
100
AcDbEntity
  8
MODEL_HOLE_70
100
AcDbLine
 10
5.894939858730933
 20
0.383072465674049
 30
0.0229164262569053
 11
5.894532374960852
 21
0.4098384256210021
 31
0.0954907860854628
  0
LINE
  5
281
330
1F
100
AcDbEntity
  8
MODEL_HOLE_80
100
AcDbLine
 10
5.895690907215658
 20
0.3330785695198486
 30
0.0231315390089164
 11
5.895788351095299
 21
0.3458641111773115
 31
0.0938632202603187
  0
LINE
  5
282
330
1F
100
AcDbEntity
  8
MODEL_HOLE_80
100
AcDbLine
 10
5.895311363809308
 20
0.285199444522295
 30
0.0217766798942001
 11
5.895408941937071
 21
0.2980026007795349
 31
0.0926058079562444
  0
LINE
  5
283
330
1F
100
AcDbEntity
  8
MODEL_HOLE_90
100
AcDbLine
 10
5.893444239787386
 20
0.0765732026860437
 30
0.0151115924309866
 11
5.893427380118895
 21
0.076883946385836
 31
0.0874345368429394
  0
LINE
  5
284
330
1F
100
AcDbEntity
  8
MODEL_HOLE_90
100
AcDbLine
 10
5.891595179441214
 20
0.1265385376928236
 30
0.014896479678979
 11
5.891577999157252
 21
0.1268551907162436
 31
0.0885947687382163
  0
LINE
  5
285
330
1F
100
AcDbEntity
  8
MODEL_HOLE_80
100
AcDbLine
 10
5.894909280863385
 20
0.2344769729811276
 30
0.0203413612058987
 11
5.895007885421863
 21
0.2474148064771882
 31
0.0919155455028071
  0
ENDSEC
  0
SECTION
  2
OBJECTS
  0
DICTIONARY
  5
C
330
0
100
AcDbDictionary
281
     1
  3
ACAD_DETAILVIEWSTYLE
350
2C1
  3
ACAD_GROUP
350
D
  3
ACAD_LAYOUT
350
1A
  3
ACAD_MATERIAL
350
43
  3
ACAD_MLEADERSTYLE
350
5B
  3
ACAD_MLINESTYLE
350
17
  3
ACAD_PLOTSETTINGS
350
19
  3
ACAD_PLOTSTYLENAME
350
E
  3
ACAD_SCALELIST
350
47
  3
ACAD_SECTIONVIEWSTYLE
350
2C2
  3
ACAD_TABLESTYLE
350
59
  3
ACAD_VISUALSTYLE
350
2A
  3
ACDB_RECOMPOSE_DATA
350
2BE
  3
AcDbVariableDictionary
350
286
  0
SUN
  5
5D
330
29
100
AcDbSun
 90
        1
290
     0
 63
     7
421
 16777215
 40
1.0
291
     1
 91
  2455826
 92
 54000000
292
     0
 70
     2
 71
   256
280
     1
  0
DICTIONARY
  5
2C1
102
{ACAD_REACTORS
330
C
102
}
330
C
100
AcDbDictionary
281
     1
  0
DICTIONARY
  5
D
102
{ACAD_REACTORS
330
C
102
}
330
C
100
AcDbDictionary
281
     1
  0
DICTIONARY
  5
1A
102
{ACAD_REACTORS
330
C
102
}
330
C
100
AcDbDictionary
281
     1
  3
Layout1
350
1E
  3
Layout2
350
26
  3
Model
350
22
  0
DICTIONARY
  5
43
102
{ACAD_REACTORS
330
C
102
}
330
C
100
AcDbDictionary
281
     1
  3
ByBlock
350
45
  3
ByLayer
350
44
  3
Global
350
46
  0
DICTIONARY
  5
5B
102
{ACAD_REACTORS
330
C
102
}
330
C
100
AcDbDictionary
281
     1
  3
Standard
350
5C
  0
DICTIONARY
  5
17
102
{ACAD_REACTORS
330
C
102
}
330
C
100
AcDbDictionary
281
     1
  3
Standard
350
18
  0
DICTIONARY
  5
19
102
{ACAD_REACTORS
330
C
102
}
330
C
100
AcDbDictionary
281
     1
  0
ACDBDICTIONARYWDFLT
  5
E
102
{ACAD_REACTORS
330
C
102
}
330
C
100
AcDbDictionary
281
     1
  3
Normal
350
F
100
AcDbDictionaryWithDefault
340
F
  0
DICTIONARY
  5
47
102
{ACAD_REACTORS
330
C
102
}
330
C
100
AcDbDictionary
281
     1
  3
A0
350
48
  3
A1
350
49
  3
A2
350
4A
  3
A3
350
4B
  3
A4
350
4C
  3
A5
350
4D
  3
A6
350
4E
  3
A7
350
4F
  3
A8
350
50
  3
A9
350
51
  3
B1
350
52
  3
B2
350
53
  3
B3
350
54
  3
B4
350
55
  3
B5
350
56
  3
B6
350
57
  3
B7
350
58
  0
DICTIONARY
  5
2C2
102
{ACAD_REACTORS
330
C
102
}
330
C
100
AcDbDictionary
281
     1
  0
DICTIONARY
  5
59
102
{ACAD_REACTORS
330
C
102
}
330
C
100
AcDbDictionary
281
     1
  3
Standard
350
5A
  0
DICTIONARY
  5
2A
102
{ACAD_REACTORS
330
C
102
}
330
C
100
AcDbDictionary
281
     1
  3
2dWireframe
350
2F
  3
Basic
350
32
  3
Brighten
350
36
  3
ColorChange
350
3A
  3
Conceptual
350
34
  3
Dim
350
35
  3
EdgeColorOff
350
3D
  3
Facepattern
350
39
  3
Flat
350
2B
  3
FlatWithEdges
350
2C
  3
Gouraud
350
2D
  3
GouraudWithEdges
350
2E
  3
Hidden
350
31
  3
JitterOff
350
3B
  3
Linepattern
350
38
  3
OverhangOff
350
3C
  3
Realistic
350
33
  3
Shaded
350
42
  3
Shaded with edges
350
41
  3
Shades of Gray
350
3E
  3
Sketchy
350
3F
  3
Thicken
350
37
  3
Wireframe
350
30
  3
X-Ray
350
40
  0
XRECORD
  5
2BE
102
{ACAD_REACTORS
330
C
102
}
330
C
100
AcDbXrecord
280
     1
 90
        1
330
5A
  0
DICTIONARY
  5
286
102
{ACAD_REACTORS
330
C
102
}
330
C
100
AcDbDictionary
281
     1
  3
CANNOSCALE
350
287
  3
CMLEADERSTYLE
350
2C0
  3
CTABLESTYLE
350
2BF
  3
XCLIPFRAME
350
288
  0
LAYOUT
  5
1E
102
{ACAD_REACTORS
330
1A
102
}
330
1A
100
AcDbPlotSettings
  1

  2
none_device
  4

  6

 40
0.0
 41
0.0
 42
0.0
 43
0.0
 44
0.0
 45
0.0
 46
0.0
 47
0.0
 48
0.0
 49
0.0
140
0.0
141
0.0
142
1.0
143
1.0
 70
   688
 72
     0
 73
     0
 74
     5
  7

 75
    16
 76
     0
 77
     2
 78
   300
147
1.0
148
0.0
149
0.0
100
AcDbLayout
  1
Layout1
 70
     1
 71
     1
 10
0.0
 20
0.0
 11
12.0
 21
9.0
 12
0.0
 22
0.0
 32
0.0
 14
1.000000000000000E+20
 24
1.000000000000000E+20
 34
1.000000000000000E+20
 15
-1.000000000000000E+20
 25
-1.000000000000000E+20
 35
-1.000000000000000E+20
146
0.0
 13
0.0
 23
0.0
 33
0.0
 16
1.0
 26
0.0
 36
0.0
 17
0.0
 27
1.0
 37
0.0
 76
     0
330
1B
  0
LAYOUT
  5
26
102
{ACAD_REACTORS
330
1A
102
}
330
1A
100
AcDbPlotSettings
  1

  2
none_device
  4

  6

 40
0.0
 41
0.0
 42
0.0
 43
0.0
 44
0.0
 45
0.0
 46
0.0
 47
0.0
 48
0.0
 49
0.0
140
0.0
141
0.0
142
1.0
143
1.0
 70
   688
 72
     0
 73
     0
 74
     5
  7

 75
    16
 76
     0
 77
     2
 78
   300
147
1.0
148
0.0
149
0.0
100
AcDbLayout
  1
Layout2
 70
     1
 71
     2
 10
0.0
 20
0.0
 11
0.0
 21
0.0
 12
0.0
 22
0.0
 32
0.0
 14
0.0
 24
0.0
 34
0.0
 15
0.0
 25
0.0
 35
0.0
146
0.0
 13
0.0
 23
0.0
 33
0.0
 16
1.0
 26
0.0
 36
0.0
 17
0.0
 27
1.0
 37
0.0
 76
     0
330
23
  0
LAYOUT
  5
22
102
{ACAD_REACTORS
330
1A
102
}
330
1A
100
AcDbPlotSettings
  1

  2
none_device
  4
Letter_(8.50_x_11.00_Inches)
  6

 40
6.35
 41
6.35
 42
6.35000508
 43
6.35000508
 44
215.9
 45
279.4
 46
0.0
 47
0.0
 48
0.0
 49
0.0
140
0.0
141
0.0
142
1.0
143
1.0
 70
  1712
 72
     0
 73
     0
 74
     0
  7

 75
     0
 76
     0
 77
     2
 78
   300
147
1.0
148
0.0
149
0.0
100
AcDbLayout
  1
Model
 70
     1
 71
     0
 10
0.0
 20
0.0
 11
12.0
 21
9.0
 12
0.0
 22
0.0
 32
0.0
 14
1.000000000000000E+20
 24
1.000000000000000E+20
 34
1.000000000000000E+20
 15
-1.000000000000000E+20
 25
-1.000000000000000E+20
 35
-1.000000000000000E+20
146
0.0
 13
0.0
 23
0.0
 33
0.0
 16
1.0
 26
0.0
 36
0.0
 17
0.0
 27
1.0
 37
0.0
 76
     0
330
1F
331
29
  0
MATERIAL
  5
45
102
{ACAD_REACTORS
330
43
102
}
330
43
100
AcDbMaterial
  1
ByBlock
 72
     1
 94
      127
  0
MATERIAL
  5
44
102
{ACAD_REACTORS
330
43
102
}
330
43
100
AcDbMaterial
  1
ByLayer
 72
     1
 94
      127
  0
MATERIAL
  5
46
102
{ACAD_REACTORS
330
43
102
}
330
43
100
AcDbMaterial
  1
Global
 72
     1
 94
      127
  0
MLEADERSTYLE
  5
5C
102
{ACAD_REACTORS
330
5B
102
}
102
{ACAD_XDICTIONARY
360
2BC
102
}
330
5B
100
AcDbMLeaderStyle
170
     2
171
     1
172
     0
 90
        2
 40
0.0
 41
0.0
173
     1
 91
-1056964608
340
14
 92
       -2
290
     1
 42
0.09
291
     1
 43
0.36
  3
Standard
341
0
 44
0.18
300

342
11
174
     1
178
     6
175
     1
176
     0
 93
-1056964608
 45
0.18
292
     0
297
     0
 46
0.18
343
0
 94
-1056964608
 47
1.0
 49
1.0
140
1.0
293
     1
141
0.0
294
     1
177
     0
142
1.0
295
     0
296
     0
143
0.125
1001
ACAD_MLEADERVER
1070
     2
  0
MLINESTYLE
  5
18
102
{ACAD_REACTORS
330
17
102
}
330
17
100
AcDbMlineStyle
  2
Standard
 70
     0
  3

 62
   256
 51
90.0
 52
90.0
 71
     2
 49
0.5
 62
   256
  6
BYLAYER
 49
-0.5
 62
   256
  6
BYLAYER
  0
ACDBPLACEHOLDER
  5
F
102
{ACAD_REACTORS
330
E
102
}
330
E
  0
SCALE
  5
48
102
{ACAD_REACTORS
330
47
102
}
330
47
100
AcDbScale
 70
     0
300
1:1
140
1.0
141
1.0
290
     1
  0
SCALE
  5
49
102
{ACAD_REACTORS
330
47
102
}
330
47
100
AcDbScale
 70
     0
300
1/128" = 1'-0"
140
0.0078125
141
12.0
290
     0
  0
SCALE
  5
4A
102
{ACAD_REACTORS
330
47
102
}
330
47
100
AcDbScale
 70
     0
300
1/64" = 1'-0"
140
0.015625
141
12.0
290
     0
  0
SCALE
  5
4B
102
{ACAD_REACTORS
330
47
102
}
330
47
100
AcDbScale
 70
     0
300
1/32" = 1'-0"
140
0.03125
141
12.0
290
     0
  0
SCALE
  5
4C
102
{ACAD_REACTORS
330
47
102
}
330
47
100
AcDbScale
 70
     0
300
1/16" = 1'-0"
140
0.0625
141
12.0
290
     0
  0
SCALE
  5
4D
102
{ACAD_REACTORS
330
47
102
}
330
47
100
AcDbScale
 70
     0
300
3/32" = 1'-0"
140
0.09375
141
12.0
290
     0
  0
SCALE
  5
4E
102
{ACAD_REACTORS
330
47
102
}
330
47
100
AcDbScale
 70
     0
300
1/8" = 1'-0"
140
0.125
141
12.0
290
     0
  0
SCALE
  5
4F
102
{ACAD_REACTORS
330
47
102
}
330
47
100
AcDbScale
 70
     0
300
3/16" = 1'-0"
140
0.1875
141
12.0
290
     0
  0
SCALE
  5
50
102
{ACAD_REACTORS
330
47
102
}
330
47
100
AcDbScale
 70
     0
300
1/4" = 1'-0"
140
0.25
141
12.0
290
     0
  0
SCALE
  5
51
102
{ACAD_REACTORS
330
47
102
}
330
47
100
AcDbScale
 70
     0
300
3/8" = 1'-0"
140
0.375
141
12.0
290
     0
  0
SCALE
  5
52
102
{ACAD_REACTORS
330
47
102
}
330
47
100
AcDbScale
 70
     0
300
1/2" = 1'-0"
140
0.5
141
12.0
290
     0
  0
SCALE
  5
53
102
{ACAD_REACTORS
330
47
102
}
330
47
100
AcDbScale
 70
     0
300
3/4" = 1'-0"
140
0.75
141
12.0
290
     0
  0
SCALE
  5
54
102
{ACAD_REACTORS
330
47
102
}
330
47
100
AcDbScale
 70
     0
300
1" = 1'-0"
140
1.0
141
12.0
290
     0
  0
SCALE
  5
55
102
{ACAD_REACTORS
330
47
102
}
330
47
100
AcDbScale
 70
     0
300
1-1/2" = 1'-0"
140
1.5
141
12.0
290
     0
  0
SCALE
  5
56
102
{ACAD_REACTORS
330
47
102
}
330
47
100
AcDbScale
 70
     0
300
3" = 1'-0"
140
3.0
141
12.0
290
     0
  0
SCALE
  5
57
102
{ACAD_REACTORS
330
47
102
}
330
47
100
AcDbScale
 70
     0
300
6" = 1'-0"
140
6.0
141
12.0
290
     0
  0
SCALE
  5
58
102
{ACAD_REACTORS
330
47
102
}
330
47
100
AcDbScale
 70
     0
300
1'-0" = 1'-0"
140
12.0
141
12.0
290
     0
  0
TABLESTYLE
  5
5A
102
{ACAD_REACTORS
330
59
102
}
102
{ACAD_XDICTIONARY
360
2B9
102
}
330
59
100
AcDbTableStyle
  3
Standard
 70
     0
 71
     0
 40
0.06
 41
0.06
280
     0
281
     0
  7
Standard
140
0.18
170
     2
 62
     0
 63
   257
283
     0
 90
        4
 91
        0
  1

274
    -2
284
     1
 64
     0
275
    -2
285
     1
 65
     0
276
    -2
286
     1
 66
     0
277
    -2
287
     1
 67
     0
278
    -2
288
     1
 68
     0
279
    -2
289
     1
 69
     0
  7
Standard
140
0.25
170
     5
 62
     0
 63
   257
283
     0
 90
        4
 91
        0
  1

274
    -2
284
     1
 64
     0
275
    -2
285
     1
 65
     0
276
    -2
286
     1
 66
     0
277
    -2
287
     1
 67
     0
278
    -2
288
     1
 68
     0
279
    -2
289
     1
 69
     0
  7
Standard
140
0.18
170
     5
 62
     0
 63
   257
283
     0
 90
        4
 91
        0
  1

274
    -2
284
     1
 64
     0
275
    -2
285
     1
 65
     0
276
    -2
286
     1
 66
     0
277
    -2
287
     1
 67
     0
278
    -2
288
     1
 68
     0
279
    -2
289
     1
 69
     0
  0
VISUALSTYLE
  5
2F
102
{ACAD_REACTORS
330
2A
102
}
102
{ACAD_XDICTIONARY
360
291
102
}
330
2A
100
AcDbVisualStyle
  2
2dWireframe
 70
     4
 71
     0
 72
     2
 73
     0
 90
        0
 40
0.6
 41
30.0
 62
     5
 63
     7
421
 16777215
 74
     1
 91
        4
 64
     7
 65
   257
 75
     1
175
     1
 42
1.0
 92
        0
 66
   257
 43
1.0
 76
     1
 77
     6
 78
     2
 67
     7
 79
     5
170
     0
171
     0
290
     0
174
     0
 93
        1
 44
0.0
173
     0
291
     0
 45
0.0
  0
VISUALSTYLE
  5
32
102
{ACAD_REACTORS
330
2A
102
}
102
{ACAD_XDICTIONARY
360
297
102
}
330
2A
100
AcDbVisualStyle
  2
Basic
 70
     7
 71
     1
 72
     0
 73
     1
 90
        0
 40
0.6
 41
30.0
 62
     5
 63
     7
421
 16777215
 74
     0
 91
        4
 64
     7
 65
   257
 75
     1
175
     1
 42
1.0
 92
        8
 66
     7
 43
1.0
 76
     1
 77
     6
 78
     2
 67
     7
 79
     5
170
     0
171
     0
290
     0
174
     0
 93
        1
 44
0.0
173
     0
291
     1
 45
0.0
  0
VISUALSTYLE
  5
36
102
{ACAD_REACTORS
330
2A
102
}
102
{ACAD_XDICTIONARY
360
29F
102
}
330
2A
100
AcDbVisualStyle
  2
Brighten
 70
    12
 71
     2
 72
     2
 73
     0
 90
        0
 40
0.6
 41
30.0
 62
     5
 63
     7
421
 16777215
 74
     1
 91
        4
 64
     7
 65
   257
 75
     1
175
     1
 42
1.0
 92
        8
 66
     7
 43
1.0
 76
     1
 77
     6
 78
     2
 67
     7
 79
     5
170
     0
171
     0
290
     0
174
     0
 93
        1
 44
50.0
173
     0
291
     1
 45
0.0
  0
VISUALSTYLE
  5
3A
102
{ACAD_REACTORS
330
2A
102
}
102
{ACAD_XDICTIONARY
360
2A7
102
}
330
2A
100
AcDbVisualStyle
  2
ColorChange
 70
    16
 71
     2
 72
     2
 73
     3
 90
        0
 40
0.6
 41
30.0
 62
     5
 63
     8
421
  8421504
 74
     1
 91
        4
 64
     7
 65
   257
 75
     1
175
     1
 42
1.0
 92
        8
 66
     8
424
  8421504
 43
1.0
 76
     1
 77
     6
 78
     2
 67
     7
 79
     5
170
     0
171
     0
290
     0
174
     0
 93
        1
 44
0.0
173
     0
291
     1
 45
0.0
  0
VISUALSTYLE
  5
34
102
{ACAD_REACTORS
330
2A
102
}
102
{ACAD_XDICTIONARY
360
29B
102
}
330
2A
100
AcDbVisualStyle
  2
Conceptual
 70
     9
 71
     3
 72
     2
 73
     0
 90
        0
 40
0.6
 41
30.0
 62
     5
 63
     7
421
 16777215
 74
     2
 91
        2
 64
     7
 65
   257
 75
     1
175
     1
 42
179.0
 92
        8
 66
     7
 43
1.0
 76
     1
 77
     6
 78
     2
 67
     7
 79
     3
170
     0
171
     0
290
     0
174
     0
 93
        1
 44
0.0
173
     0
291
     0
 45
0.0
  0
VISUALSTYLE
  5
35
102
{ACAD_REACTORS
330
2A
102
}
102
{ACAD_XDICTIONARY
360
29D
102
}
330
2A
100
AcDbVisualStyle
  2
Dim
 70
    11
 71
     2
 72
     2
 73
     0
 90
        0
 40
0.6
 41
30.0
 62
     5
 63
     7
421
 16777215
 74
     1
 91
        4
 64
     7
 65
   257
 75
     1
175
     1
 42
1.0
 92
        8
 66
     7
 43
1.0
 76
     1
 77
     6
 78
     2
 67
     7
 79
     5
170
     0
171
     0
290
     0
174
     0
 93
        1
 44
-50.0
173
     0
291
     1
 45
0.0
  0
VISUALSTYLE
  5
3D
102
{ACAD_REACTORS
330
2A
102
}
102
{ACAD_XDICTIONARY
360
2AD
102
}
330
2A
100
AcDbVisualStyle
  2
EdgeColorOff
 70
    22
 71
     2
 72
     2
 73
     0
 90
        0
 40
0.6
 41
30.0
 62
     5
 63
     7
421
 16777215
 74
     1
 91
        4
 64
     7
 65
   257
 75
     1
175
     1
 42
1.0
 92
        8
 66
     7
 43
1.0
 76
     1
 77
     6
 78
     2
 67
     7
 79
     5
170
     0
171
     0
290
     0
174
     0
 93
        1
 44
0.0
173
     0
291
     1
 45
0.0
  0
VISUALSTYLE
  5
39
102
{ACAD_REACTORS
330
2A
102
}
102
{ACAD_XDICTIONARY
360
2A5
102
}
330
2A
100
AcDbVisualStyle
  2
Facepattern
 70
    15
 71
     2
 72
     2
 73
     0
 90
        0
 40
0.6
 41
30.0
 62
     5
 63
     7
421
 16777215
 74
     1
 91
        4
 64
     7
 65
   257
 75
     1
175
     1
 42
1.0
 92
        8
 66
     7
 43
1.0
 76
     1
 77
     6
 78
     2
 67
     7
 79
     5
170
     0
171
     0
290
     0
174
     0
 93
        1
 44
0.0
173
     0
291
     1
 45
0.0
  0
VISUALSTYLE
  5
2B
102
{ACAD_REACTORS
330
2A
102
}
102
{ACAD_XDICTIONARY
360
289
102
}
330
2A
100
AcDbVisualStyle
  2
Flat
 70
     0
 71
     2
 72
     1
 73
     1
 90
        2
 40
0.6
 41
30.0
 62
     5
 63
     7
421
 16777215
 74
     0
 91
        0
 64
     7
 65
   257
 75
     1
175
     1
 42
1.0
 92
        8
 66
     7
 43
1.0
 76
     1
 77
     6
 78
     2
 67
     7
 79
     5
170
     0
171
     0
290
     0
174
     0
 93
       13
 44
0.0
173
     0
291
     1
 45
0.0
  0
VISUALSTYLE
  5
2C
102
{ACAD_REACTORS
330
2A
102
}
102
{ACAD_XDICTIONARY
360
28B
102
}
330
2A
100
AcDbVisualStyle
  2
FlatWithEdges
 70
     1
 71
     2
 72
     1
 73
     1
 90
        2
 40
0.6
 41
30.0
 62
     5
 63
     7
421
 16777215
 74
     1
 91
        0
 64
     7
 65
   257
 75
     1
175
     1
 42
1.0
 92
        0
 66
   257
 43
1.0
 76
     1
 77
     6
 78
     2
 67
     7
 79
     5
170
     0
171
     0
290
     0
174
     0
 93
       13
 44
0.0
173
     0
291
     1
 45
0.0
  0
VISUALSTYLE
  5
2D
102
{ACAD_REACTORS
330
2A
102
}
102
{ACAD_XDICTIONARY
360
28D
102
}
330
2A
100
AcDbVisualStyle
  2
Gouraud
 70
     2
 71
     2
 72
     2
 73
     1
 90
        2
 40
0.6
 41
30.0
 62
     5
 63
     7
421
 16777215
 74
     0
 91
        0
 64
     7
 65
   257
 75
     1
175
     1
 42
1.0
 92
        0
 66
     7
 43
1.0
 76
     1
 77
     6
 78
     2
 67
     7
 79
     5
170
     0
171
     0
290
     0
174
     0
 93
       13
 44
0.0
173
     0
291
     1
 45
0.0
  0
VISUALSTYLE
  5
2E
102
{ACAD_REACTORS
330
2A
102
}
102
{ACAD_XDICTIONARY
360
28F
102
}
330
2A
100
AcDbVisualStyle
  2
GouraudWithEdges
 70
     3
 71
     2
 72
     2
 73
     1
 90
        2
 40
0.6
 41
30.0
 62
     5
 63
     7
421
 16777215
 74
     1
 91
        0
 64
     7
 65
   257
 75
     1
175
     1
 42
1.0
 92
        0
 66
   257
 43
1.0
 76
     1
 77
     6
 78
     2
 67
     7
 79
     5
170
     0
171
     0
290
     0
174
     0
 93
       13
 44
0.0
173
     0
291
     1
 45
0.0
  0
VISUALSTYLE
  5
31
102
{ACAD_REACTORS
330
2A
102
}
102
{ACAD_XDICTIONARY
360
295
102
}
330
2A
100
AcDbVisualStyle
  2
Hidden
 70
     6
 71
     1
 72
     2
 73
     2
 90
        0
 40
0.6
 41
30.0
 62
     5
 63
     7
421
 16777215
 74
     2
 91
        2
 64
     7
 65
   257
 75
     2
175
     1
 42
40.0
 92
        0
 66
   257
 43
1.0
 76
     1
 77
     6
 78
     2
 67
     7
 79
     3
170
     0
171
     0
290
     0
174
     0
 93
        1
 44
0.0
173
     0
291
     0
 45
0.0
  0
VISUALSTYLE
  5
3B
102
{ACAD_REACTORS
330
2A
102
}
102
{ACAD_XDICTIONARY
360
2A9
102
}
330
2A
100
AcDbVisualStyle
  2
JitterOff
 70
    20
 71
     2
 72
     2
 73
     0
 90
        0
 40
0.6
 41
30.0
 62
     5
 63
     7
421
 16777215
 74
     1
 91
        4
 64
     7
 65
   257
 75
     1
175
     1
 42
1.0
 92
       10
 66
     7
 43
1.0
 76
     1
 77
     6
 78
     2
 67
     7
 79
     5
170
     0
171
     0
290
     0
174
     0
 93
        1
 44
0.0
173
     0
291
     1
 45
0.0
  0
VISUALSTYLE
  5
38
102
{ACAD_REACTORS
330
2A
102
}
102
{ACAD_XDICTIONARY
360
2A3
102
}
330
2A
100
AcDbVisualStyle
  2
Linepattern
 70
    14
 71
     2
 72
     2
 73
     0
 90
        0
 40
0.6
 41
30.0
 62
     5
 63
     7
421
 16777215
 74
     1
 91
        4
 64
     7
 65
   257
 75
     7
175
     7
 42
1.0
 92
        8
 66
     7
 43
1.0
 76
     1
 77
     6
 78
     2
 67
     7
 79
     5
170
     0
171
     0
290
     0
174
     0
 93
        1
 44
0.0
173
     0
291
     1
 45
0.0
  0
VISUALSTYLE
  5
3C
102
{ACAD_REACTORS
330
2A
102
}
102
{ACAD_XDICTIONARY
360
2AB
102
}
330
2A
100
AcDbVisualStyle
  2
OverhangOff
 70
    21
 71
     2
 72
     2
 73
     0
 90
        0
 40
0.6
 41
30.0
 62
     5
 63
     7
421
 16777215
 74
     1
 91
        4
 64
     7
 65
   257
 75
     1
175
     1
 42
1.0
 92
        9
 66
     7
 43
1.0
 76
     1
 77
     6
 78
     2
 67
     7
 79
     5
170
     0
171
     0
290
     0
174
     0
 93
        1
 44
0.0
173
     0
291
     1
 45
0.0
  0
VISUALSTYLE
  5
33
102
{ACAD_REACTORS
330
2A
102
}
102
{ACAD_XDICTIONARY
360
299
102
}
330
2A
100
AcDbVisualStyle
  2
Realistic
 70
     8
 71
     2
 72
     3
 73
     0
 90
        2
 40
0.6
 41
30.0
 62
     5
 63
     7
421
 16777215
 74
     0
 91
        0
 64
     7
 65
   257
 75
     1
175
     1
 42
1.0
 92
        8
 66
   257
 43
1.0
 76
     1
 77
     6
 78
     2
 67
     7
 79
     3
170
     0
171
     0
290
     0
174
     0
 93
       13
 44
0.0
173
     0
291
     0
 45
0.0
  0
VISUALSTYLE
  5
42
102
{ACAD_REACTORS
330
2A
102
}
102
{ACAD_XDICTIONARY
360
2B7
102
}
330
2A
100
AcDbVisualStyle
  2
Shaded
 70
    27
 71
     2
 72
     2
 73
     1
 90
        2
 40
0.6
 41
30.0
 62
     5
 63
     7
421
 16777215
 74
     0
 91
        4
 64
     7
 65
   257
 75
     1
175
     1
 42
1.0
 92
        8
 66
   257
 43
1.0
 76
     1
 77
     6
 78
     2
 67
     8
425
  7895160
 79
     3
170
     0
171
     0
290
     0
174
     0
 93
        5
 44
0.0
173
     0
291
     0
 45
0.0
  0
VISUALSTYLE
  5
41
102
{ACAD_REACTORS
330
2A
102
}
102
{ACAD_XDICTIONARY
360
2B5
102
}
330
2A
100
AcDbVisualStyle
  2
Shaded with edges
 70
    26
 71
     2
 72
     2
 73
     1
 90
        2
 40
0.6
 41
30.0
 62
     5
 63
     7
421
 16777215
 74
     1
 91
       10
 64
     7
 65
   257
 75
     2
175
     1
 42
1.0
 92
        8
 66
   257
 43
1.0
 76
     1
 77
     6
 78
     2
 67
     7
 79
     3
170
     0
171
     0
290
     0
174
     0
 93
        5
 44
0.0
173
     0
291
     0
 45
0.0
  0
VISUALSTYLE
  5
3E
102
{ACAD_REACTORS
330
2A
102
}
102
{ACAD_XDICTIONARY
360
2AF
102
}
330
2A
100
AcDbVisualStyle
  2
Shades of Gray
 70
    23
 71
     2
 72
     2
 73
     3
 90
        0
 40
0.6
 41
30.0
 62
     5
 63
     7
421
 16777215
 74
     2
 91
        2
 64
     7
 65
     7
 75
     1
175
     1
 42
40.0
 92
        8
 66
     7
 43
1.0
 76
     1
 77
     6
 78
     2
 67
     7
 79
     3
170
     0
171
     0
290
     0
174
     0
 93
        1
 44
0.0
173
     0
291
     0
 45
0.0
  0
VISUALSTYLE
  5
3F
102
{ACAD_REACTORS
330
2A
102
}
102
{ACAD_XDICTIONARY
360
2B1
102
}
330
2A
100
AcDbVisualStyle
  2
Sketchy
 70
    24
 71
     1
 72
     2
 73
     2
 90
        0
 40
0.6
 41
30.0
 62
     5
 63
     7
421
 16777215
 74
     2
 91
        2
 64
     7
 65
     7
 75
     1
175
     1
 42
40.0
 92
       11
 66
     7
 43
1.0
 76
     1
 77
     6
 78
     2
 67
     7
 79
     6
170
     0
171
     0
290
     0
174
     0
 93
        1
 44
0.0
173
     0
291
     0
 45
0.0
  0
VISUALSTYLE
  5
37
102
{ACAD_REACTORS
330
2A
102
}
102
{ACAD_XDICTIONARY
360
2A1
102
}
330
2A
100
AcDbVisualStyle
  2
Thicken
 70
    13
 71
     2
 72
     2
 73
     0
 90
        0
 40
0.6
 41
30.0
 62
     5
 63
     7
421
 16777215
 74
     1
 91
        4
 64
     7
 65
   257
 75
     1
175
     1
 42
1.0
 92
       12
 66
     7
 43
1.0
 76
     1
 77
     6
 78
     2
 67
     7
 79
     5
170
     0
171
     0
290
     0
174
     0
 93
        1
 44
0.0
173
     0
291
     1
 45
0.0
  0
VISUALSTYLE
  5
30
102
{ACAD_REACTORS
330
2A
102
}
102
{ACAD_XDICTIONARY
360
293
102
}
330
2A
100
AcDbVisualStyle
  2
Wireframe
 70
     5
 71
     0
 72
     2
 73
     0
 90
        0
 40
0.6
 41
30.0
 62
     5
 63
     7
421
 16777215
 74
     1
 91
        4
 64
     7
 65
   257
 75
     1
175
     1
 42
1.0
 92
        0
 66
   257
 43
1.0
 76
     1
 77
     6
 78
     2
 67
     7
 79
     3
170
     0
171
     0
290
     0
174
     0
 93
        1
 44
0.0
173
     0
291
     0
 45
0.0
  0
VISUALSTYLE
  5
40
102
{ACAD_REACTORS
330
2A
102
}
102
{ACAD_XDICTIONARY
360
2B3
102
}
330
2A
100
AcDbVisualStyle
  2
X-Ray
 70
    25
 71
     2
 72
     2
 73
     1
 90
        1
 40
0.5
 41
30.0
 62
     5
 63
     7
421
 16777215
 74
     1
 91
        0
 64
     7
 65
   257
 75
     1
175
     1
 42
1.0
 92
        8
 66
     7
 43
1.0
 76
     1
 77
     6
 78
     2
 67
     7
 79
     3
170
     0
171
     0
290
     0
174
     0
 93
       13
 44
0.0
173
     0
291
     0
 45
0.0
  0
DICTIONARYVAR
  5
287
102
{ACAD_REACTORS
330
286
102
}
330
286
100
DictionaryVariables
280
     0
  1
1:1
  0
DICTIONARYVAR
  5
2C0
102
{ACAD_REACTORS
330
286
102
}
330
286
100
DictionaryVariables
280
     0
  1
Standard
  0
DICTIONARYVAR
  5
2BF
102
{ACAD_REACTORS
330
286
102
}
330
286
100
DictionaryVariables
280
     0
  1
Standard
  0
DICTIONARYVAR
  5
288
102
{ACAD_REACTORS
330
286
102
}
330
286
100
DictionaryVariables
280
     0
  1
2
  0
DICTIONARY
  5
2BC
330
5C
100
AcDbDictionary
280
     1
281
     1
  3
ACAD_XREC_ROUNDTRIP
360
2BD
  0
DICTIONARY
  5
2B9
330
5A
100
AcDbDictionary
280
     1
281
     1
  3
ACAD_ROUNDTRIP_2008_TABLESTYLE_CELLSTYLEMAP
360
2BA
  0
DICTIONARY
  5
291
330
2F
100
AcDbDictionary
280
     1
281
     1
  3
ACAD_XREC_ROUNDTRIP
360
292
  0
DICTIONARY
  5
297
330
32
100
AcDbDictionary
280
     1
281
     1
  3
ACAD_XREC_ROUNDTRIP
360
298
  0
DICTIONARY
  5
29F
330
36
100
AcDbDictionary
280
     1
281
     1
  3
ACAD_XREC_ROUNDTRIP
360
2A0
  0
DICTIONARY
  5
2A7
330
3A
100
AcDbDictionary
280
     1
281
     1
  3
ACAD_XREC_ROUNDTRIP
360
2A8
  0
DICTIONARY
  5
29B
330
34
100
AcDbDictionary
280
     1
281
     1
  3
ACAD_XREC_ROUNDTRIP
360
29C
  0
DICTIONARY
  5
29D
330
35
100
AcDbDictionary
280
     1
281
     1
  3
ACAD_XREC_ROUNDTRIP
360
29E
  0
DICTIONARY
  5
2AD
330
3D
100
AcDbDictionary
280
     1
281
     1
  3
ACAD_XREC_ROUNDTRIP
360
2AE
  0
DICTIONARY
  5
2A5
330
39
100
AcDbDictionary
280
     1
281
     1
  3
ACAD_XREC_ROUNDTRIP
360
2A6
  0
DICTIONARY
  5
289
330
2B
100
AcDbDictionary
280
     1
281
     1
  3
ACAD_XREC_ROUNDTRIP
360
28A
  0
DICTIONARY
  5
28B
330
2C
100
AcDbDictionary
280
     1
281
     1
  3
ACAD_XREC_ROUNDTRIP
360
28C
  0
DICTIONARY
  5
28D
330
2D
100
AcDbDictionary
280
     1
281
     1
  3
ACAD_XREC_ROUNDTRIP
360
28E
  0
DICTIONARY
  5
28F
330
2E
100
AcDbDictionary
280
     1
281
     1
  3
ACAD_XREC_ROUNDTRIP
360
290
  0
DICTIONARY
  5
295
330
31
100
AcDbDictionary
280
     1
281
     1
  3
ACAD_XREC_ROUNDTRIP
360
296
  0
DICTIONARY
  5
2A9
330
3B
100
AcDbDictionary
280
     1
281
     1
  3
ACAD_XREC_ROUNDTRIP
360
2AA
  0
DICTIONARY
  5
2A3
330
38
100
AcDbDictionary
280
     1
281
     1
  3
ACAD_XREC_ROUNDTRIP
360
2A4
  0
DICTIONARY
  5
2AB
330
3C
100
AcDbDictionary
280
     1
281
     1
  3
ACAD_XREC_ROUNDTRIP
360
2AC
  0
DICTIONARY
  5
299
330
33
100
AcDbDictionary
280
     1
281
     1
  3
ACAD_XREC_ROUNDTRIP
360
29A
  0
DICTIONARY
  5
2B7
330
42
100
AcDbDictionary
280
     1
281
     1
  3
ACAD_XREC_ROUNDTRIP
360
2B8
  0
DICTIONARY
  5
2B5
330
41
100
AcDbDictionary
280
     1
281
     1
  3
ACAD_XREC_ROUNDTRIP
360
2B6
  0
DICTIONARY
  5
2AF
330
3E
100
AcDbDictionary
280
     1
281
     1
  3
ACAD_XREC_ROUNDTRIP
360
2B0
  0
DICTIONARY
  5
2B1
330
3F
100
AcDbDictionary
280
     1
281
     1
  3
ACAD_XREC_ROUNDTRIP
360
2B2
  0
DICTIONARY
  5
2A1
330
37
100
AcDbDictionary
280
     1
281
     1
  3
ACAD_XREC_ROUNDTRIP
360
2A2
  0
DICTIONARY
  5
293
330
30
100
AcDbDictionary
280
     1
281
     1
  3
ACAD_XREC_ROUNDTRIP
360
294
  0
DICTIONARY
  5
2B3
330
40
100
AcDbDictionary
280
     1
281
     1
  3
ACAD_XREC_ROUNDTRIP
360
2B4
  0
XRECORD
  5
2BD
102
{ACAD_REACTORS
330
2BC
102
}
330
2BC
100
AcDbXrecord
280
     1
102
ACAD_ROUNDTRIP_2010_MLEADER_STYLE
  0
CELLSTYLEMAP
  5
2BA
102
{ACAD_REACTORS
330
2B9
102
}
330
2B9
100
AcDbCellStyleMap
 90
        3
300
CELLSTYLE
  1
TABLEFORMAT_BEGIN
 90
        5
170
     1
 91
        0
 92
    32768
 62
   257
 93
        1
300
CONTENTFORMAT
  1
CONTENTFORMAT_BEGIN
 90
        0
 91
        0
 92
        4
 93
        0
300

 40
0.0
140
1.0
 94
        5
 62
     0
340
11
144
0.25
309
CONTENTFORMAT_END
171
     1
301
MARGIN
  1
CELLMARGIN_BEGIN
 40
0.06
 40
0.06
 40
0.06
 40
0.06
 40
0.06
 40
0.06
309
CELLMARGIN_END
 94
        6
 95
        1
302
GRIDFORMAT
  1
GRIDFORMAT_BEGIN
 90
        0
 91
        1
 62
     0
 92
       -2
340
14
 93
        0
 40
0.045
309
GRIDFORMAT_END
 95
        2
302
GRIDFORMAT
  1
GRIDFORMAT_BEGIN
 90
        0
 91
        1
 62
     0
 92
       -2
340
14
 93
        0
 40
0.045
309
GRIDFORMAT_END
 95
        4
302
GRIDFORMAT
  1
GRIDFORMAT_BEGIN
 90
        0
 91
        1
 62
     0
 92
       -2
340
14
 93
        0
 40
0.045
309
GRIDFORMAT_END
 95
        8
302
GRIDFORMAT
  1
GRIDFORMAT_BEGIN
 90
        0
 91
        1
 62
     0
 92
       -2
340
14
 93
        0
 40
0.045
309
GRIDFORMAT_END
 95
       16
302
GRIDFORMAT
  1
GRIDFORMAT_BEGIN
 90
        0
 91
        1
 62
     0
 92
       -2
340
14
 93
        0
 40
0.045
309
GRIDFORMAT_END
 95
       32
302
GRIDFORMAT
  1
GRIDFORMAT_BEGIN
 90
        0
 91
        1
 62
     0
 92
       -2
340
14
 93
        0
 40
0.045
309
GRIDFORMAT_END
309
TABLEFORMAT_END
  1
CELLSTYLE_BEGIN
 90
        1
 91
        1
300
_TITLE
309
CELLSTYLE_END
300
CELLSTYLE
  1
TABLEFORMAT_BEGIN
 90
        5
170
     1
 91
        0
 92
        0
 62
   257
 93
        1
300
CONTENTFORMAT
  1
CONTENTFORMAT_BEGIN
 90
        0
 91
        0
 92
        4
 93
        0
300

 40
0.0
140
1.0
 94
        5
 62
     0
340
11
144
0.18
309
CONTENTFORMAT_END
171
     1
301
MARGIN
  1
CELLMARGIN_BEGIN
 40
0.06
 40
0.06
 40
0.06
 40
0.06
 40
0.06
 40
0.06
309
CELLMARGIN_END
 94
        6
 95
        1
302
GRIDFORMAT
  1
GRIDFORMAT_BEGIN
 90
        0
 91
        1
 62
     0
 92
       -2
340
14
 93
        0
 40
0.045
309
GRIDFORMAT_END
 95
        2
302
GRIDFORMAT
  1
GRIDFORMAT_BEGIN
 90
        0
 91
        1
 62
     0
 92
       -2
340
14
 93
        0
 40
0.045
309
GRIDFORMAT_END
 95
        4
302
GRIDFORMAT
  1
GRIDFORMAT_BEGIN
 90
        0
 91
        1
 62
     0
 92
       -2
340
14
 93
        0
 40
0.045
309
GRIDFORMAT_END
 95
        8
302
GRIDFORMAT
  1
GRIDFORMAT_BEGIN
 90
        0
 91
        1
 62
     0
 92
       -2
340
14
 93
        0
 40
0.045
309
GRIDFORMAT_END
 95
       16
302
GRIDFORMAT
  1
GRIDFORMAT_BEGIN
 90
        0
 91
        1
 62
     0
 92
       -2
340
14
 93
        0
 40
0.045
309
GRIDFORMAT_END
 95
       32
302
GRIDFORMAT
  1
GRIDFORMAT_BEGIN
 90
        0
 91
        1
 62
     0
 92
       -2
340
14
 93
        0
 40
0.045
309
GRIDFORMAT_END
309
TABLEFORMAT_END
  1
CELLSTYLE_BEGIN
 90
        2
 91
        1
300
_HEADER
309
CELLSTYLE_END
300
CELLSTYLE
  1
TABLEFORMAT_BEGIN
 90
        5
170
     1
 91
        0
 92
        0
 62
   257
 93
        1
300
CONTENTFORMAT
  1
CONTENTFORMAT_BEGIN
 90
        0
 91
        0
 92
        4
 93
        0
300

 40
0.0
140
1.0
 94
        2
 62
     0
340
11
144
0.18
309
CONTENTFORMAT_END
171
     1
301
MARGIN
  1
CELLMARGIN_BEGIN
 40
0.06
 40
0.06
 40
0.06
 40
0.06
 40
0.06
 40
0.06
309
CELLMARGIN_END
 94
        6
 95
        1
302
GRIDFORMAT
  1
GRIDFORMAT_BEGIN
 90
        0
 91
        1
 62
     0
 92
       -2
340
14
 93
        0
 40
0.045
309
GRIDFORMAT_END
 95
        2
302
GRIDFORMAT
  1
GRIDFORMAT_BEGIN
 90
        0
 91
        1
 62
     0
 92
       -2
340
14
 93
        0
 40
0.045
309
GRIDFORMAT_END
 95
        4
302
GRIDFORMAT
  1
GRIDFORMAT_BEGIN
 90
        0
 91
        1
 62
     0
 92
       -2
340
14
 93
        0
 40
0.045
309
GRIDFORMAT_END
 95
        8
302
GRIDFORMAT
  1
GRIDFORMAT_BEGIN
 90
        0
 91
        1
 62
     0
 92
       -2
340
14
 93
        0
 40
0.045
309
GRIDFORMAT_END
 95
       16
302
GRIDFORMAT
  1
GRIDFORMAT_BEGIN
 90
        0
 91
        1
 62
     0
 92
       -2
340
14
 93
        0
 40
0.045
309
GRIDFORMAT_END
 95
       32
302
GRIDFORMAT
  1
GRIDFORMAT_BEGIN
 90
        0
 91
        1
 62
     0
 92
       -2
340
14
 93
        0
 40
0.045
309
GRIDFORMAT_END
309
TABLEFORMAT_END
  1
CELLSTYLE_BEGIN
 90
        3
 91
        2
300
_DATA
309
CELLSTYLE_END
  0
XRECORD
  5
292
102
{ACAD_REACTORS
330
291
102
}
330
291
100
AcDbXrecord
280
     1
102
RTVSPropertyOp0
 70
     1
102
RTVSPropertyOp1
 70
     1
102
RTVSPropertyOp2
 70
     1
102
RTVSPropertyOp3
 70
     1
102
RTVSPropertyOp4
 70
     1
102
RTVSPropertyOp5
 70
     1
102
RTVSPropertyOp6
 70
     1
102
RTVSPropertyOp7
 70
     1
102
RTVSPropertyOp8
 70
     1
102
RTVSPropertyOp9
 70
     1
102
RTVSPropertyOp10
 70
     1
102
RTVSPropertyOp11
 70
     1
102
RTVSPropertyOp12
 70
     1
102
RTVSPropertyOp13
 70
     1
102
RTVSPropertyOp14
 70
     1
102
RTVSPropertyOp15
 70
     1
102
RTVSPropertyOp16
 70
     1
102
RTVSPropertyOp17
 70
     1
102
RTVSPropertyOp18
 70
     1
102
RTVSPropertyOp19
 70
     1
102
RTVSPropertyOp20
 70
     1
102
RTVSPropertyOp21
 70
     1
102
RTVSPropertyOp22
 70
     1
102
RTVSPropertyOp23
 70
     1
102
RTVSPropertyOp24
 70
     1
102
RTVSPropertyOp25
 70
     1
102
RTVSPropertyOp26
 70
     1
102
RTVSPropertyOp27
 70
     1
102
RTVSPropertyOp28
 70
     1
102
RTVSPropertyOp29
 70
     1
102
RTVSPropertyOp30
 70
     1
102
RTVSPropertyOp31
 70
     1
102
RTVSPropertyOp32
 70
     1
102
RTVSPropertyOp33
 70
     1
102
RTVSPropertyOp34
 70
     1
102
RTVSPropertyOp35
 70
     1
102
RTVSPropertyOp36
 70
     1
102
RTVSPropertyOp37
 70
     1
102
RTVSPropertyOp38
 70
     1
102
RTVSPropertyOp39
 70
     1
102
RTVSPropertyOp40
 70
     1
102
RTVSPropertyOp41
 70
     1
102
RTVSPropertyOp42
 70
     1
102
RTVSPropertyOp43
 70
     1
102
RTVSPropertyOp44
 70
     1
102
RTVSPropertyOp45
 70
     1
102
RTVSPropertyOp46
 70
     1
102
RTVSPropertyOp47
 70
     1
102
RTVSPropertyOp48
 70
     1
102
RTVSPropertyOp49
 70
     1
102
RTVSPropertyOp50
 70
     1
102
RTVSPropertyOp51
 70
     0
102
RTVSPropertyOp52
 70
     0
102
RTVSPropertyOp53
 70
     1
102
RTVSPropertyOp54
 70
     1
102
RTVSPropertyOp55
 70
     1
102
RTVSPropertyOp56
 70
     1
102
RTVSPropertyOp57
 70
     1
102
RTVSPost2010Prop28
280
     1
102
RTVSPost2010PropOp28
 70
     1
102
RTVSPost2010Prop29
280
     1
102
RTVSPost2010PropOp29
 70
     1
102
RTVSPost2010Prop30
280
     0
102
RTVSPost2010PropOp30
 70
     1
102
RTVSPost2010Prop31
280
     0
102
RTVSPost2010PropOp31
 70
     1
102
RTVSPost2010Prop32
280
     0
102
RTVSPost2010PropOp32
 70
     1
102
RTVSPost2010Prop33
280
     0
102
RTVSPost2010PropOp33
 70
     1
102
RTVSPost2010Prop34
280
     0
102
RTVSPost2010PropOp34
 70
     1
102
RTVSPost2010Prop35
280
     0
102
RTVSPost2010PropOp35
 70
     1
102
RTVSPost2010Prop36
280
     0
102
RTVSPost2010PropOp36
 70
     1
102
RTVSPost2010Prop37
 90
       50
102
RTVSPost2010PropOp37
 70
     1
102
RTVSPost2010Prop38
140
0.0
102
RTVSPost2010PropOp38
 70
     1
102
RTVSPost2010Prop39
140
1.0
102
RTVSPost2010PropOp39
 70
     1
102
RTVSPost2010Prop40
 90
        0
102
RTVSPost2010PropOp40
 70
     1
102
RTVSPost2010Prop41ColorIndex
 90
       18
102
RTVSPost2010Prop41ColorRGB
 90
        0
102
RTVSPost2010PropOp41
 70
     1
102
RTVSPost2010Prop42
 90
       50
102
RTVSPost2010PropOp42
 70
     1
102
RTVSPost2010Prop43
 90
        3
102
RTVSPost2010PropOp43
 70
     1
102
RTVSPost2010Prop44ColorIndex
 90
        5
102
RTVSPost2010Prop44ColorRGB
 90
      255
102
RTVSPost2010PropOp44
 70
     1
102
RTVSPost2010Prop45
280
     0
102
RTVSPost2010PropOp45
 70
     1
102
RTVSPost2010Prop46
 90
       50
102
RTVSPost2010PropOp46
 70
     1
102
RTVSPost2010Prop47
 90
       50
102
RTVSPost2010PropOp47
 70
     1
102
RTVSPost2010Prop48
 90
       50
102
RTVSPost2010PropOp48
 70
     1
102
RTVSPost2010Prop49
280
     0
102
RTVSPost2010PropOp49
 70
     1
102
RTVSPost2010Prop50
 90
       50
102
RTVSPost2010PropOp50
 70
     1
102
RTVSPost2010Prop51ColorIndex
 90
      256
102
RTVSPost2010Prop51ColorRGB
 90
-16777216
102
RTVSPost2010PropOp51
 70
     0
102
RTVSPost2010Prop52
140
1.0
102
RTVSPost2010PropOp52
 70
     0
102
RTVSPost2010Prop53
 90
        2
102
RTVSPost2010PropOp53
 70
     1
102
RTVSPost2010Prop54
  1
strokes_ogs.tif
102
RTVSPost2010PropOp54
 70
     1
102
RTVSPost2010Prop55
280
     0
102
RTVSPost2010PropOp55
 70
     1
102
RTVSPost2010Prop56
140
1.0
102
RTVSPost2010PropOp56
 70
     1
102
RTVSPost2010Prop57
140
1.0
102
RTVSPost2010PropOp57
 70
     1
  0
XRECORD
  5
298
102
{ACAD_REACTORS
330
297
102
}
330
297
100
AcDbXrecord
280
     1
102
RTVSPropertyOp0
 70
     1
102
RTVSPropertyOp1
 70
     1
102
RTVSPropertyOp2
 70
     1
102
RTVSPropertyOp3
 70
     1
102
RTVSPropertyOp4
 70
     1
102
RTVSPropertyOp5
 70
     1
102
RTVSPropertyOp6
 70
     1
102
RTVSPropertyOp7
 70
     1
102
RTVSPropertyOp8
 70
     1
102
RTVSPropertyOp9
 70
     1
102
RTVSPropertyOp10
 70
     1
102
RTVSPropertyOp11
 70
     1
102
RTVSPropertyOp12
 70
     1
102
RTVSPropertyOp13
 70
     1
102
RTVSPropertyOp14
 70
     1
102
RTVSPropertyOp15
 70
     1
102
RTVSPropertyOp16
 70
     1
102
RTVSPropertyOp17
 70
     1
102
RTVSPropertyOp18
 70
     1
102
RTVSPropertyOp19
 70
     1
102
RTVSPropertyOp20
 70
     1
102
RTVSPropertyOp21
 70
     1
102
RTVSPropertyOp22
 70
     1
102
RTVSPropertyOp23
 70
     1
102
RTVSPropertyOp24
 70
     1
102
RTVSPropertyOp25
 70
     1
102
RTVSPropertyOp26
 70
     1
102
RTVSPropertyOp27
 70
     1
102
RTVSPropertyOp28
 70
     1
102
RTVSPropertyOp29
 70
     1
102
RTVSPropertyOp30
 70
     1
102
RTVSPropertyOp31
 70
     1
102
RTVSPropertyOp32
 70
     1
102
RTVSPropertyOp33
 70
     1
102
RTVSPropertyOp34
 70
     1
102
RTVSPropertyOp35
 70
     1
102
RTVSPropertyOp36
 70
     1
102
RTVSPropertyOp37
 70
     1
102
RTVSPropertyOp38
 70
     1
102
RTVSPropertyOp39
 70
     1
102
RTVSPropertyOp40
 70
     1
102
RTVSPropertyOp41
 70
     1
102
RTVSPropertyOp42
 70
     1
102
RTVSPropertyOp43
 70
     1
102
RTVSPropertyOp44
 70
     1
102
RTVSPropertyOp45
 70
     1
102
RTVSPropertyOp46
 70
     1
102
RTVSPropertyOp47
 70
     1
102
RTVSPropertyOp48
 70
     1
102
RTVSPropertyOp49
 70
     1
102
RTVSPropertyOp50
 70
     1
102
RTVSPropertyOp51
 70
     0
102
RTVSPropertyOp52
 70
     0
102
RTVSPropertyOp53
 70
     1
102
RTVSPropertyOp54
 70
     1
102
RTVSPropertyOp55
 70
     1
102
RTVSPropertyOp56
 70
     1
102
RTVSPropertyOp57
 70
     1
102
RTVSPost2010Prop28
280
     0
102
RTVSPost2010PropOp28
 70
     1
102
RTVSPost2010Prop29
280
     1
102
RTVSPost2010PropOp29
 70
     1
102
RTVSPost2010Prop30
280
     1
102
RTVSPost2010PropOp30
 70
     1
102
RTVSPost2010Prop31
280
     0
102
RTVSPost2010PropOp31
 70
     1
102
RTVSPost2010Prop32
280
     0
102
RTVSPost2010PropOp32
 70
     1
102
RTVSPost2010Prop33
280
     0
102
RTVSPost2010PropOp33
 70
     1
102
RTVSPost2010Prop34
280
     0
102
RTVSPost2010PropOp34
 70
     1
102
RTVSPost2010Prop35
280
     0
102
RTVSPost2010PropOp35
 70
     1
102
RTVSPost2010Prop36
280
     0
102
RTVSPost2010PropOp36
 70
     1
102
RTVSPost2010Prop37
 90
       50
102
RTVSPost2010PropOp37
 70
     1
102
RTVSPost2010Prop38
140
0.0
102
RTVSPost2010PropOp38
 70
     1
102
RTVSPost2010Prop39
140
1.0
102
RTVSPost2010PropOp39
 70
     1
102
RTVSPost2010Prop40
 90
        0
102
RTVSPost2010PropOp40
 70
     1
102
RTVSPost2010Prop41ColorIndex
 90
       18
102
RTVSPost2010Prop41ColorRGB
 90
        0
102
RTVSPost2010PropOp41
 70
     1
102
RTVSPost2010Prop42
 90
       50
102
RTVSPost2010PropOp42
 70
     1
102
RTVSPost2010Prop43
 90
        3
102
RTVSPost2010PropOp43
 70
     1
102
RTVSPost2010Prop44ColorIndex
 90
        5
102
RTVSPost2010Prop44ColorRGB
 90
      255
102
RTVSPost2010PropOp44
 70
     1
102
RTVSPost2010Prop45
280
     0
102
RTVSPost2010PropOp45
 70
     1
102
RTVSPost2010Prop46
 90
       50
102
RTVSPost2010PropOp46
 70
     1
102
RTVSPost2010Prop47
 90
       50
102
RTVSPost2010PropOp47
 70
     1
102
RTVSPost2010Prop48
 90
       50
102
RTVSPost2010PropOp48
 70
     1
102
RTVSPost2010Prop49
280
     0
102
RTVSPost2010PropOp49
 70
     1
102
RTVSPost2010Prop50
 90
       50
102
RTVSPost2010PropOp50
 70
     1
102
RTVSPost2010Prop51ColorIndex
 90
      256
102
RTVSPost2010Prop51ColorRGB
 90
-16777216
102
RTVSPost2010PropOp51
 70
     0
102
RTVSPost2010Prop52
140
1.0
102
RTVSPost2010PropOp52
 70
     0
102
RTVSPost2010Prop53
 90
        2
102
RTVSPost2010PropOp53
 70
     1
102
RTVSPost2010Prop54
  1
strokes_ogs.tif
102
RTVSPost2010PropOp54
 70
     1
102
RTVSPost2010Prop55
280
     0
102
RTVSPost2010PropOp55
 70
     1
102
RTVSPost2010Prop56
140
1.0
102
RTVSPost2010PropOp56
 70
     1
102
RTVSPost2010Prop57
140
1.0
102
RTVSPost2010PropOp57
 70
     1
  0
XRECORD
  5
2A0
102
{ACAD_REACTORS
330
29F
102
}
330
29F
100
AcDbXrecord
280
     1
102
RTVSPropertyOp0
 70
     1
102
RTVSPropertyOp1
 70
     1
102
RTVSPropertyOp2
 70
     1
102
RTVSPropertyOp3
 70
     1
102
RTVSPropertyOp4
 70
     1
102
RTVSPropertyOp5
 70
     1
102
RTVSPropertyOp6
 70
     1
102
RTVSPropertyOp7
 70
     1
102
RTVSPropertyOp8
 70
     1
102
RTVSPropertyOp9
 70
     1
102
RTVSPropertyOp10
 70
     1
102
RTVSPropertyOp11
 70
     1
102
RTVSPropertyOp12
 70
     1
102
RTVSPropertyOp13
 70
     1
102
RTVSPropertyOp14
 70
     1
102
RTVSPropertyOp15
 70
     1
102
RTVSPropertyOp16
 70
     1
102
RTVSPropertyOp17
 70
     1
102
RTVSPropertyOp18
 70
     1
102
RTVSPropertyOp19
 70
     1
102
RTVSPropertyOp20
 70
     1
102
RTVSPropertyOp21
 70
     1
102
RTVSPropertyOp22
 70
     1
102
RTVSPropertyOp23
 70
     1
102
RTVSPropertyOp24
 70
     1
102
RTVSPropertyOp25
 70
     1
102
RTVSPropertyOp26
 70
     1
102
RTVSPropertyOp27
 70
     1
102
RTVSPropertyOp28
 70
     1
102
RTVSPropertyOp29
 70
     1
102
RTVSPropertyOp30
 70
     1
102
RTVSPropertyOp31
 70
     1
102
RTVSPropertyOp32
 70
     1
102
RTVSPropertyOp33
 70
     1
102
RTVSPropertyOp34
 70
     1
102
RTVSPropertyOp35
 70
     1
102
RTVSPropertyOp36
 70
     1
102
RTVSPropertyOp37
 70
     1
102
RTVSPropertyOp38
 70
     1
102
RTVSPropertyOp39
 70
     1
102
RTVSPropertyOp40
 70
     1
102
RTVSPropertyOp41
 70
     1
102
RTVSPropertyOp42
 70
     1
102
RTVSPropertyOp43
 70
     1
102
RTVSPropertyOp44
 70
     1
102
RTVSPropertyOp45
 70
     1
102
RTVSPropertyOp46
 70
     1
102
RTVSPropertyOp47
 70
     1
102
RTVSPropertyOp48
 70
     1
102
RTVSPropertyOp49
 70
     1
102
RTVSPropertyOp50
 70
     1
102
RTVSPropertyOp51
 70
     0
102
RTVSPropertyOp52
 70
     0
102
RTVSPropertyOp53
 70
     1
102
RTVSPropertyOp54
 70
     1
102
RTVSPropertyOp55
 70
     1
102
RTVSPropertyOp56
 70
     1
102
RTVSPropertyOp57
 70
     1
102
RTVSPost2010Prop28
280
     0
102
RTVSPost2010PropOp28
 70
     1
102
RTVSPost2010Prop29
280
     1
102
RTVSPost2010PropOp29
 70
     1
102
RTVSPost2010Prop30
280
     1
102
RTVSPost2010PropOp30
 70
     1
102
RTVSPost2010Prop31
280
     0
102
RTVSPost2010PropOp31
 70
     1
102
RTVSPost2010Prop32
280
     0
102
RTVSPost2010PropOp32
 70
     1
102
RTVSPost2010Prop33
280
     0
102
RTVSPost2010PropOp33
 70
     1
102
RTVSPost2010Prop34
280
     0
102
RTVSPost2010PropOp34
 70
     1
102
RTVSPost2010Prop35
280
     0
102
RTVSPost2010PropOp35
 70
     1
102
RTVSPost2010Prop36
280
     0
102
RTVSPost2010PropOp36
 70
     1
102
RTVSPost2010Prop37
 90
       50
102
RTVSPost2010PropOp37
 70
     1
102
RTVSPost2010Prop38
140
0.0
102
RTVSPost2010PropOp38
 70
     1
102
RTVSPost2010Prop39
140
1.0
102
RTVSPost2010PropOp39
 70
     1
102
RTVSPost2010Prop40
 90
        0
102
RTVSPost2010PropOp40
 70
     1
102
RTVSPost2010Prop41ColorIndex
 90
       18
102
RTVSPost2010Prop41ColorRGB
 90
        0
102
RTVSPost2010PropOp41
 70
     1
102
RTVSPost2010Prop42
 90
       50
102
RTVSPost2010PropOp42
 70
     1
102
RTVSPost2010Prop43
 90
        3
102
RTVSPost2010PropOp43
 70
     1
102
RTVSPost2010Prop44ColorIndex
 90
        5
102
RTVSPost2010Prop44ColorRGB
 90
      255
102
RTVSPost2010PropOp44
 70
     1
102
RTVSPost2010Prop45
280
     0
102
RTVSPost2010PropOp45
 70
     1
102
RTVSPost2010Prop46
 90
       50
102
RTVSPost2010PropOp46
 70
     1
102
RTVSPost2010Prop47
 90
       50
102
RTVSPost2010PropOp47
 70
     1
102
RTVSPost2010Prop48
 90
       50
102
RTVSPost2010PropOp48
 70
     1
102
RTVSPost2010Prop49
280
     0
102
RTVSPost2010PropOp49
 70
     1
102
RTVSPost2010Prop50
 90
       50
102
RTVSPost2010PropOp50
 70
     1
102
RTVSPost2010Prop51ColorIndex
 90
      256
102
RTVSPost2010Prop51ColorRGB
 90
-16777216
102
RTVSPost2010PropOp51
 70
     0
102
RTVSPost2010Prop52
140
1.0
102
RTVSPost2010PropOp52
 70
     0
102
RTVSPost2010Prop53
 90
        2
102
RTVSPost2010PropOp53
 70
     1
102
RTVSPost2010Prop54
  1
strokes_ogs.tif
102
RTVSPost2010PropOp54
 70
     1
102
RTVSPost2010Prop55
280
     0
102
RTVSPost2010PropOp55
 70
     1
102
RTVSPost2010Prop56
140
1.0
102
RTVSPost2010PropOp56
 70
     1
102
RTVSPost2010Prop57
140
1.0
102
RTVSPost2010PropOp57
 70
     1
  0
XRECORD
  5
2A8
102
{ACAD_REACTORS
330
2A7
102
}
330
2A7
100
AcDbXrecord
280
     1
102
RTVSPropertyOp0
 70
     1
102
RTVSPropertyOp1
 70
     1
102
RTVSPropertyOp2
 70
     1
102
RTVSPropertyOp3
 70
     1
102
RTVSPropertyOp4
 70
     1
102
RTVSPropertyOp5
 70
     1
102
RTVSPropertyOp6
 70
     1
102
RTVSPropertyOp7
 70
     1
102
RTVSPropertyOp8
 70
     1
102
RTVSPropertyOp9
 70
     1
102
RTVSPropertyOp10
 70
     1
102
RTVSPropertyOp11
 70
     1
102
RTVSPropertyOp12
 70
     1
102
RTVSPropertyOp13
 70
     1
102
RTVSPropertyOp14
 70
     1
102
RTVSPropertyOp15
 70
     1
102
RTVSPropertyOp16
 70
     1
102
RTVSPropertyOp17
 70
     1
102
RTVSPropertyOp18
 70
     1
102
RTVSPropertyOp19
 70
     1
102
RTVSPropertyOp20
 70
     1
102
RTVSPropertyOp21
 70
     1
102
RTVSPropertyOp22
 70
     1
102
RTVSPropertyOp23
 70
     1
102
RTVSPropertyOp24
 70
     1
102
RTVSPropertyOp25
 70
     1
102
RTVSPropertyOp26
 70
     1
102
RTVSPropertyOp27
 70
     1
102
RTVSPropertyOp28
 70
     1
102
RTVSPropertyOp29
 70
     1
102
RTVSPropertyOp30
 70
     1
102
RTVSPropertyOp31
 70
     1
102
RTVSPropertyOp32
 70
     1
102
RTVSPropertyOp33
 70
     1
102
RTVSPropertyOp34
 70
     1
102
RTVSPropertyOp35
 70
     1
102
RTVSPropertyOp36
 70
     1
102
RTVSPropertyOp37
 70
     1
102
RTVSPropertyOp38
 70
     1
102
RTVSPropertyOp39
 70
     1
102
RTVSPropertyOp40
 70
     1
102
RTVSPropertyOp41
 70
     1
102
RTVSPropertyOp42
 70
     1
102
RTVSPropertyOp43
 70
     1
102
RTVSPropertyOp44
 70
     1
102
RTVSPropertyOp45
 70
     1
102
RTVSPropertyOp46
 70
     1
102
RTVSPropertyOp47
 70
     1
102
RTVSPropertyOp48
 70
     1
102
RTVSPropertyOp49
 70
     1
102
RTVSPropertyOp50
 70
     1
102
RTVSPropertyOp51
 70
     0
102
RTVSPropertyOp52
 70
     0
102
RTVSPropertyOp53
 70
     1
102
RTVSPropertyOp54
 70
     1
102
RTVSPropertyOp55
 70
     1
102
RTVSPropertyOp56
 70
     1
102
RTVSPropertyOp57
 70
     1
102
RTVSPost2010Prop28
280
     0
102
RTVSPost2010PropOp28
 70
     1
102
RTVSPost2010Prop29
280
     1
102
RTVSPost2010PropOp29
 70
     1
102
RTVSPost2010Prop30
280
     1
102
RTVSPost2010PropOp30
 70
     1
102
RTVSPost2010Prop31
280
     0
102
RTVSPost2010PropOp31
 70
     1
102
RTVSPost2010Prop32
280
     0
102
RTVSPost2010PropOp32
 70
     1
102
RTVSPost2010Prop33
280
     0
102
RTVSPost2010PropOp33
 70
     1
102
RTVSPost2010Prop34
280
     0
102
RTVSPost2010PropOp34
 70
     1
102
RTVSPost2010Prop35
280
     0
102
RTVSPost2010PropOp35
 70
     1
102
RTVSPost2010Prop36
280
     0
102
RTVSPost2010PropOp36
 70
     1
102
RTVSPost2010Prop37
 90
       50
102
RTVSPost2010PropOp37
 70
     1
102
RTVSPost2010Prop38
140
0.0
102
RTVSPost2010PropOp38
 70
     1
102
RTVSPost2010Prop39
140
1.0
102
RTVSPost2010PropOp39
 70
     1
102
RTVSPost2010Prop40
 90
        0
102
RTVSPost2010PropOp40
 70
     1
102
RTVSPost2010Prop41ColorIndex
 90
       18
102
RTVSPost2010Prop41ColorRGB
 90
        0
102
RTVSPost2010PropOp41
 70
     1
102
RTVSPost2010Prop42
 90
       50
102
RTVSPost2010PropOp42
 70
     1
102
RTVSPost2010Prop43
 90
        3
102
RTVSPost2010PropOp43
 70
     1
102
RTVSPost2010Prop44ColorIndex
 90
        5
102
RTVSPost2010Prop44ColorRGB
 90
      255
102
RTVSPost2010PropOp44
 70
     1
102
RTVSPost2010Prop45
280
     0
102
RTVSPost2010PropOp45
 70
     1
102
RTVSPost2010Prop46
 90
       50
102
RTVSPost2010PropOp46
 70
     1
102
RTVSPost2010Prop47
 90
       50
102
RTVSPost2010PropOp47
 70
     1
102
RTVSPost2010Prop48
 90
       50
102
RTVSPost2010PropOp48
 70
     1
102
RTVSPost2010Prop49
280
     0
102
RTVSPost2010PropOp49
 70
     1
102
RTVSPost2010Prop50
 90
       50
102
RTVSPost2010PropOp50
 70
     1
102
RTVSPost2010Prop51ColorIndex
 90
      256
102
RTVSPost2010Prop51ColorRGB
 90
-16777216
102
RTVSPost2010PropOp51
 70
     0
102
RTVSPost2010Prop52
140
1.0
102
RTVSPost2010PropOp52
 70
     0
102
RTVSPost2010Prop53
 90
        2
102
RTVSPost2010PropOp53
 70
     1
102
RTVSPost2010Prop54
  1
strokes_ogs.tif
102
RTVSPost2010PropOp54
 70
     1
102
RTVSPost2010Prop55
280
     0
102
RTVSPost2010PropOp55
 70
     1
102
RTVSPost2010Prop56
140
1.0
102
RTVSPost2010PropOp56
 70
     1
102
RTVSPost2010Prop57
140
1.0
102
RTVSPost2010PropOp57
 70
     1
  0
XRECORD
  5
29C
102
{ACAD_REACTORS
330
29B
102
}
330
29B
100
AcDbXrecord
280
     1
102
RTVSPropertyOp0
 70
     1
102
RTVSPropertyOp1
 70
     1
102
RTVSPropertyOp2
 70
     1
102
RTVSPropertyOp3
 70
     1
102
RTVSPropertyOp4
 70
     1
102
RTVSPropertyOp5
 70
     1
102
RTVSPropertyOp6
 70
     1
102
RTVSPropertyOp7
 70
     1
102
RTVSPropertyOp8
 70
     1
102
RTVSPropertyOp9
 70
     1
102
RTVSPropertyOp10
 70
     1
102
RTVSPropertyOp11
 70
     1
102
RTVSPropertyOp12
 70
     1
102
RTVSPropertyOp13
 70
     1
102
RTVSPropertyOp14
 70
     1
102
RTVSPropertyOp15
 70
     1
102
RTVSPropertyOp16
 70
     1
102
RTVSPropertyOp17
 70
     1
102
RTVSPropertyOp18
 70
     1
102
RTVSPropertyOp19
 70
     1
102
RTVSPropertyOp20
 70
     1
102
RTVSPropertyOp21
 70
     1
102
RTVSPropertyOp22
 70
     1
102
RTVSPropertyOp23
 70
     1
102
RTVSPropertyOp24
 70
     1
102
RTVSPropertyOp25
 70
     1
102
RTVSPropertyOp26
 70
     1
102
RTVSPropertyOp27
 70
     1
102
RTVSPropertyOp28
 70
     1
102
RTVSPropertyOp29
 70
     1
102
RTVSPropertyOp30
 70
     1
102
RTVSPropertyOp31
 70
     1
102
RTVSPropertyOp32
 70
     1
102
RTVSPropertyOp33
 70
     1
102
RTVSPropertyOp34
 70
     1
102
RTVSPropertyOp35
 70
     1
102
RTVSPropertyOp36
 70
     1
102
RTVSPropertyOp37
 70
     1
102
RTVSPropertyOp38
 70
     1
102
RTVSPropertyOp39
 70
     1
102
RTVSPropertyOp40
 70
     1
102
RTVSPropertyOp41
 70
     1
102
RTVSPropertyOp42
 70
     1
102
RTVSPropertyOp43
 70
     1
102
RTVSPropertyOp44
 70
     1
102
RTVSPropertyOp45
 70
     1
102
RTVSPropertyOp46
 70
     1
102
RTVSPropertyOp47
 70
     1
102
RTVSPropertyOp48
 70
     1
102
RTVSPropertyOp49
 70
     1
102
RTVSPropertyOp50
 70
     1
102
RTVSPropertyOp51
 70
     0
102
RTVSPropertyOp52
 70
     0
102
RTVSPropertyOp53
 70
     1
102
RTVSPropertyOp54
 70
     1
102
RTVSPropertyOp55
 70
     1
102
RTVSPropertyOp56
 70
     1
102
RTVSPropertyOp57
 70
     1
102
RTVSPost2010Prop28
280
     0
102
RTVSPost2010PropOp28
 70
     1
102
RTVSPost2010Prop29
280
     1
102
RTVSPost2010PropOp29
 70
     1
102
RTVSPost2010Prop30
280
     1
102
RTVSPost2010PropOp30
 70
     1
102
RTVSPost2010Prop31
280
     0
102
RTVSPost2010PropOp31
 70
     1
102
RTVSPost2010Prop32
280
     0
102
RTVSPost2010PropOp32
 70
     1
102
RTVSPost2010Prop33
280
     0
102
RTVSPost2010PropOp33
 70
     1
102
RTVSPost2010Prop34
280
     0
102
RTVSPost2010PropOp34
 70
     1
102
RTVSPost2010Prop35
280
     0
102
RTVSPost2010PropOp35
 70
     1
102
RTVSPost2010Prop36
280
     0
102
RTVSPost2010PropOp36
 70
     1
102
RTVSPost2010Prop37
 90
       50
102
RTVSPost2010PropOp37
 70
     1
102
RTVSPost2010Prop38
140
0.0
102
RTVSPost2010PropOp38
 70
     1
102
RTVSPost2010Prop39
140
1.0
102
RTVSPost2010PropOp39
 70
     1
102
RTVSPost2010Prop40
 90
        0
102
RTVSPost2010PropOp40
 70
     1
102
RTVSPost2010Prop41ColorIndex
 90
       18
102
RTVSPost2010Prop41ColorRGB
 90
        0
102
RTVSPost2010PropOp41
 70
     1
102
RTVSPost2010Prop42
 90
       50
102
RTVSPost2010PropOp42
 70
     1
102
RTVSPost2010Prop43
 90
        3
102
RTVSPost2010PropOp43
 70
     1
102
RTVSPost2010Prop44ColorIndex
 90
        5
102
RTVSPost2010Prop44ColorRGB
 90
      255
102
RTVSPost2010PropOp44
 70
     1
102
RTVSPost2010Prop45
280
     0
102
RTVSPost2010PropOp45
 70
     1
102
RTVSPost2010Prop46
 90
       50
102
RTVSPost2010PropOp46
 70
     1
102
RTVSPost2010Prop47
 90
       50
102
RTVSPost2010PropOp47
 70
     1
102
RTVSPost2010Prop48
 90
       50
102
RTVSPost2010PropOp48
 70
     1
102
RTVSPost2010Prop49
280
     0
102
RTVSPost2010PropOp49
 70
     1
102
RTVSPost2010Prop50
 90
       50
102
RTVSPost2010PropOp50
 70
     1
102
RTVSPost2010Prop51ColorIndex
 90
      256
102
RTVSPost2010Prop51ColorRGB
 90
-16777216
102
RTVSPost2010PropOp51
 70
     0
102
RTVSPost2010Prop52
140
1.0
102
RTVSPost2010PropOp52
 70
     0
102
RTVSPost2010Prop53
 90
        2
102
RTVSPost2010PropOp53
 70
     1
102
RTVSPost2010Prop54
  1
strokes_ogs.tif
102
RTVSPost2010PropOp54
 70
     1
102
RTVSPost2010Prop55
280
     0
102
RTVSPost2010PropOp55
 70
     1
102
RTVSPost2010Prop56
140
1.0
102
RTVSPost2010PropOp56
 70
     1
102
RTVSPost2010Prop57
140
1.0
102
RTVSPost2010PropOp57
 70
     1
  0
XRECORD
  5
29E
102
{ACAD_REACTORS
330
29D
102
}
330
29D
100
AcDbXrecord
280
     1
102
RTVSPropertyOp0
 70
     1
102
RTVSPropertyOp1
 70
     1
102
RTVSPropertyOp2
 70
     1
102
RTVSPropertyOp3
 70
     1
102
RTVSPropertyOp4
 70
     1
102
RTVSPropertyOp5
 70
     1
102
RTVSPropertyOp6
 70
     1
102
RTVSPropertyOp7
 70
     1
102
RTVSPropertyOp8
 70
     1
102
RTVSPropertyOp9
 70
     1
102
RTVSPropertyOp10
 70
     1
102
RTVSPropertyOp11
 70
     1
102
RTVSPropertyOp12
 70
     1
102
RTVSPropertyOp13
 70
     1
102
RTVSPropertyOp14
 70
     1
102
RTVSPropertyOp15
 70
     1
102
RTVSPropertyOp16
 70
     1
102
RTVSPropertyOp17
 70
     1
102
RTVSPropertyOp18
 70
     1
102
RTVSPropertyOp19
 70
     1
102
RTVSPropertyOp20
 70
     1
102
RTVSPropertyOp21
 70
     1
102
RTVSPropertyOp22
 70
     1
102
RTVSPropertyOp23
 70
     1
102
RTVSPropertyOp24
 70
     1
102
RTVSPropertyOp25
 70
     1
102
RTVSPropertyOp26
 70
     1
102
RTVSPropertyOp27
 70
     1
102
RTVSPropertyOp28
 70
     1
102
RTVSPropertyOp29
 70
     1
102
RTVSPropertyOp30
 70
     1
102
RTVSPropertyOp31
 70
     1
102
RTVSPropertyOp32
 70
     1
102
RTVSPropertyOp33
 70
     1
102
RTVSPropertyOp34
 70
     1
102
RTVSPropertyOp35
 70
     1
102
RTVSPropertyOp36
 70
     1
102
RTVSPropertyOp37
 70
     1
102
RTVSPropertyOp38
 70
     1
102
RTVSPropertyOp39
 70
     1
102
RTVSPropertyOp40
 70
     1
102
RTVSPropertyOp41
 70
     1
102
RTVSPropertyOp42
 70
     1
102
RTVSPropertyOp43
 70
     1
102
RTVSPropertyOp44
 70
     1
102
RTVSPropertyOp45
 70
     1
102
RTVSPropertyOp46
 70
     1
102
RTVSPropertyOp47
 70
     1
102
RTVSPropertyOp48
 70
     1
102
RTVSPropertyOp49
 70
     1
102
RTVSPropertyOp50
 70
     1
102
RTVSPropertyOp51
 70
     0
102
RTVSPropertyOp52
 70
     0
102
RTVSPropertyOp53
 70
     1
102
RTVSPropertyOp54
 70
     1
102
RTVSPropertyOp55
 70
     1
102
RTVSPropertyOp56
 70
     1
102
RTVSPropertyOp57
 70
     1
102
RTVSPost2010Prop28
280
     0
102
RTVSPost2010PropOp28
 70
     1
102
RTVSPost2010Prop29
280
     1
102
RTVSPost2010PropOp29
 70
     1
102
RTVSPost2010Prop30
280
     1
102
RTVSPost2010PropOp30
 70
     1
102
RTVSPost2010Prop31
280
     0
102
RTVSPost2010PropOp31
 70
     1
102
RTVSPost2010Prop32
280
     0
102
RTVSPost2010PropOp32
 70
     1
102
RTVSPost2010Prop33
280
     0
102
RTVSPost2010PropOp33
 70
     1
102
RTVSPost2010Prop34
280
     0
102
RTVSPost2010PropOp34
 70
     1
102
RTVSPost2010Prop35
280
     0
102
RTVSPost2010PropOp35
 70
     1
102
RTVSPost2010Prop36
280
     0
102
RTVSPost2010PropOp36
 70
     1
102
RTVSPost2010Prop37
 90
       50
102
RTVSPost2010PropOp37
 70
     1
102
RTVSPost2010Prop38
140
0.0
102
RTVSPost2010PropOp38
 70
     1
102
RTVSPost2010Prop39
140
1.0
102
RTVSPost2010PropOp39
 70
     1
102
RTVSPost2010Prop40
 90
        0
102
RTVSPost2010PropOp40
 70
     1
102
RTVSPost2010Prop41ColorIndex
 90
       18
102
RTVSPost2010Prop41ColorRGB
 90
        0
102
RTVSPost2010PropOp41
 70
     1
102
RTVSPost2010Prop42
 90
       50
102
RTVSPost2010PropOp42
 70
     1
102
RTVSPost2010Prop43
 90
        3
102
RTVSPost2010PropOp43
 70
     1
102
RTVSPost2010Prop44ColorIndex
 90
        5
102
RTVSPost2010Prop44ColorRGB
 90
      255
102
RTVSPost2010PropOp44
 70
     1
102
RTVSPost2010Prop45
280
     0
102
RTVSPost2010PropOp45
 70
     1
102
RTVSPost2010Prop46
 90
       50
102
RTVSPost2010PropOp46
 70
     1
102
RTVSPost2010Prop47
 90
       50
102
RTVSPost2010PropOp47
 70
     1
102
RTVSPost2010Prop48
 90
       50
102
RTVSPost2010PropOp48
 70
     1
102
RTVSPost2010Prop49
280
     0
102
RTVSPost2010PropOp49
 70
     1
102
RTVSPost2010Prop50
 90
       50
102
RTVSPost2010PropOp50
 70
     1
102
RTVSPost2010Prop51ColorIndex
 90
      256
102
RTVSPost2010Prop51ColorRGB
 90
-16777216
102
RTVSPost2010PropOp51
 70
     0
102
RTVSPost2010Prop52
140
1.0
102
RTVSPost2010PropOp52
 70
     0
102
RTVSPost2010Prop53
 90
        2
102
RTVSPost2010PropOp53
 70
     1
102
RTVSPost2010Prop54
  1
strokes_ogs.tif
102
RTVSPost2010PropOp54
 70
     1
102
RTVSPost2010Prop55
280
     0
102
RTVSPost2010PropOp55
 70
     1
102
RTVSPost2010Prop56
140
1.0
102
RTVSPost2010PropOp56
 70
     1
102
RTVSPost2010Prop57
140
1.0
102
RTVSPost2010PropOp57
 70
     1
  0
XRECORD
  5
2AE
102
{ACAD_REACTORS
330
2AD
102
}
330
2AD
100
AcDbXrecord
280
     1
102
RTVSPropertyOp0
 70
     0
102
RTVSPropertyOp1
 70
     0
102
RTVSPropertyOp2
 70
     0
102
RTVSPropertyOp3
 70
     0
102
RTVSPropertyOp4
 70
     0
102
RTVSPropertyOp5
 70
     0
102
RTVSPropertyOp6
 70
     0
102
RTVSPropertyOp7
 70
     0
102
RTVSPropertyOp8
 70
     0
102
RTVSPropertyOp9
 70
     0
102
RTVSPropertyOp10
 70
     0
102
RTVSPropertyOp11
 70
     0
102
RTVSPropertyOp12
 70
     0
102
RTVSPropertyOp13
 70
     0
102
RTVSPropertyOp14
 70
     2
102
RTVSPropertyOp15
 70
     0
102
RTVSPropertyOp16
 70
     0
102
RTVSPropertyOp17
 70
     0
102
RTVSPropertyOp18
 70
     0
102
RTVSPropertyOp19
 70
     0
102
RTVSPropertyOp20
 70
     0
102
RTVSPropertyOp21
 70
     0
102
RTVSPropertyOp22
 70
     0
102
RTVSPropertyOp23
 70
     0
102
RTVSPropertyOp24
 70
     0
102
RTVSPropertyOp25
 70
     0
102
RTVSPropertyOp26
 70
     0
102
RTVSPropertyOp27
 70
     0
102
RTVSPropertyOp28
 70
     0
102
RTVSPropertyOp29
 70
     0
102
RTVSPropertyOp30
 70
     0
102
RTVSPropertyOp31
 70
     0
102
RTVSPropertyOp32
 70
     0
102
RTVSPropertyOp33
 70
     0
102
RTVSPropertyOp34
 70
     0
102
RTVSPropertyOp35
 70
     0
102
RTVSPropertyOp36
 70
     0
102
RTVSPropertyOp37
 70
     0
102
RTVSPropertyOp38
 70
     0
102
RTVSPropertyOp39
 70
     0
102
RTVSPropertyOp40
 70
     0
102
RTVSPropertyOp41
 70
     0
102
RTVSPropertyOp42
 70
     0
102
RTVSPropertyOp43
 70
     0
102
RTVSPropertyOp44
 70
     0
102
RTVSPropertyOp45
 70
     0
102
RTVSPropertyOp46
 70
     0
102
RTVSPropertyOp47
 70
     0
102
RTVSPropertyOp48
 70
     0
102
RTVSPropertyOp49
 70
     0
102
RTVSPropertyOp50
 70
     0
102
RTVSPropertyOp51
 70
     0
102
RTVSPropertyOp52
 70
     0
102
RTVSPropertyOp53
 70
     0
102
RTVSPropertyOp54
 70
     0
102
RTVSPropertyOp55
 70
     0
102
RTVSPropertyOp56
 70
     0
102
RTVSPropertyOp57
 70
     0
102
RTVSPost2010Prop28
280
     0
102
RTVSPost2010PropOp28
 70
     0
102
RTVSPost2010Prop29
280
     1
102
RTVSPost2010PropOp29
 70
     0
102
RTVSPost2010Prop30
280
     1
102
RTVSPost2010PropOp30
 70
     0
102
RTVSPost2010Prop31
280
     0
102
RTVSPost2010PropOp31
 70
     0
102
RTVSPost2010Prop32
280
     0
102
RTVSPost2010PropOp32
 70
     0
102
RTVSPost2010Prop33
280
     0
102
RTVSPost2010PropOp33
 70
     0
102
RTVSPost2010Prop34
280
     0
102
RTVSPost2010PropOp34
 70
     0
102
RTVSPost2010Prop35
280
     0
102
RTVSPost2010PropOp35
 70
     0
102
RTVSPost2010Prop36
280
     0
102
RTVSPost2010PropOp36
 70
     0
102
RTVSPost2010Prop37
 90
       50
102
RTVSPost2010PropOp37
 70
     0
102
RTVSPost2010Prop38
140
0.0
102
RTVSPost2010PropOp38
 70
     0
102
RTVSPost2010Prop39
140
1.0
102
RTVSPost2010PropOp39
 70
     0
102
RTVSPost2010Prop40
 90
        0
102
RTVSPost2010PropOp40
 70
     0
102
RTVSPost2010Prop41ColorIndex
 90
       18
102
RTVSPost2010Prop41ColorRGB
 90
        0
102
RTVSPost2010PropOp41
 70
     0
102
RTVSPost2010Prop42
 90
       50
102
RTVSPost2010PropOp42
 70
     0
102
RTVSPost2010Prop43
 90
        3
102
RTVSPost2010PropOp43
 70
     0
102
RTVSPost2010Prop44ColorIndex
 90
        5
102
RTVSPost2010Prop44ColorRGB
 90
      255
102
RTVSPost2010PropOp44
 70
     0
102
RTVSPost2010Prop45
280
     0
102
RTVSPost2010PropOp45
 70
     0
102
RTVSPost2010Prop46
 90
       50
102
RTVSPost2010PropOp46
 70
     0
102
RTVSPost2010Prop47
 90
       50
102
RTVSPost2010PropOp47
 70
     0
102
RTVSPost2010Prop48
 90
       50
102
RTVSPost2010PropOp48
 70
     0
102
RTVSPost2010Prop49
280
     0
102
RTVSPost2010PropOp49
 70
     0
102
RTVSPost2010Prop50
 90
       50
102
RTVSPost2010PropOp50
 70
     0
102
RTVSPost2010Prop51ColorIndex
 90
      256
102
RTVSPost2010Prop51ColorRGB
 90
-16777216
102
RTVSPost2010PropOp51
 70
     0
102
RTVSPost2010Prop52
140
1.0
102
RTVSPost2010PropOp52
 70
     0
102
RTVSPost2010Prop53
 90
        2
102
RTVSPost2010PropOp53
 70
     0
102
RTVSPost2010Prop54
  1
strokes_ogs.tif
102
RTVSPost2010PropOp54
 70
     0
102
RTVSPost2010Prop55
280
     0
102
RTVSPost2010PropOp55
 70
     0
102
RTVSPost2010Prop56
140
1.0
102
RTVSPost2010PropOp56
 70
     0
102
RTVSPost2010Prop57
140
1.0
102
RTVSPost2010PropOp57
 70
     0
  0
XRECORD
  5
2A6
102
{ACAD_REACTORS
330
2A5
102
}
330
2A5
100
AcDbXrecord
280
     1
102
RTVSPropertyOp0
 70
     1
102
RTVSPropertyOp1
 70
     1
102
RTVSPropertyOp2
 70
     1
102
RTVSPropertyOp3
 70
     1
102
RTVSPropertyOp4
 70
     1
102
RTVSPropertyOp5
 70
     1
102
RTVSPropertyOp6
 70
     1
102
RTVSPropertyOp7
 70
     1
102
RTVSPropertyOp8
 70
     1
102
RTVSPropertyOp9
 70
     1
102
RTVSPropertyOp10
 70
     1
102
RTVSPropertyOp11
 70
     1
102
RTVSPropertyOp12
 70
     1
102
RTVSPropertyOp13
 70
     1
102
RTVSPropertyOp14
 70
     1
102
RTVSPropertyOp15
 70
     1
102
RTVSPropertyOp16
 70
     1
102
RTVSPropertyOp17
 70
     1
102
RTVSPropertyOp18
 70
     1
102
RTVSPropertyOp19
 70
     1
102
RTVSPropertyOp20
 70
     1
102
RTVSPropertyOp21
 70
     1
102
RTVSPropertyOp22
 70
     1
102
RTVSPropertyOp23
 70
     1
102
RTVSPropertyOp24
 70
     1
102
RTVSPropertyOp25
 70
     1
102
RTVSPropertyOp26
 70
     1
102
RTVSPropertyOp27
 70
     1
102
RTVSPropertyOp28
 70
     1
102
RTVSPropertyOp29
 70
     1
102
RTVSPropertyOp30
 70
     1
102
RTVSPropertyOp31
 70
     1
102
RTVSPropertyOp32
 70
     1
102
RTVSPropertyOp33
 70
     1
102
RTVSPropertyOp34
 70
     1
102
RTVSPropertyOp35
 70
     1
102
RTVSPropertyOp36
 70
     1
102
RTVSPropertyOp37
 70
     1
102
RTVSPropertyOp38
 70
     1
102
RTVSPropertyOp39
 70
     1
102
RTVSPropertyOp40
 70
     1
102
RTVSPropertyOp41
 70
     1
102
RTVSPropertyOp42
 70
     1
102
RTVSPropertyOp43
 70
     1
102
RTVSPropertyOp44
 70
     1
102
RTVSPropertyOp45
 70
     1
102
RTVSPropertyOp46
 70
     1
102
RTVSPropertyOp47
 70
     1
102
RTVSPropertyOp48
 70
     1
102
RTVSPropertyOp49
 70
     1
102
RTVSPropertyOp50
 70
     1
102
RTVSPropertyOp51
 70
     0
102
RTVSPropertyOp52
 70
     0
102
RTVSPropertyOp53
 70
     1
102
RTVSPropertyOp54
 70
     1
102
RTVSPropertyOp55
 70
     1
102
RTVSPropertyOp56
 70
     1
102
RTVSPropertyOp57
 70
     1
102
RTVSPost2010Prop28
280
     0
102
RTVSPost2010PropOp28
 70
     1
102
RTVSPost2010Prop29
280
     1
102
RTVSPost2010PropOp29
 70
     1
102
RTVSPost2010Prop30
280
     1
102
RTVSPost2010PropOp30
 70
     1
102
RTVSPost2010Prop31
280
     0
102
RTVSPost2010PropOp31
 70
     1
102
RTVSPost2010Prop32
280
     0
102
RTVSPost2010PropOp32
 70
     1
102
RTVSPost2010Prop33
280
     0
102
RTVSPost2010PropOp33
 70
     1
102
RTVSPost2010Prop34
280
     0
102
RTVSPost2010PropOp34
 70
     1
102
RTVSPost2010Prop35
280
     0
102
RTVSPost2010PropOp35
 70
     1
102
RTVSPost2010Prop36
280
     0
102
RTVSPost2010PropOp36
 70
     1
102
RTVSPost2010Prop37
 90
       50
102
RTVSPost2010PropOp37
 70
     1
102
RTVSPost2010Prop38
140
0.0
102
RTVSPost2010PropOp38
 70
     1
102
RTVSPost2010Prop39
140
1.0
102
RTVSPost2010PropOp39
 70
     1
102
RTVSPost2010Prop40
 90
        0
102
RTVSPost2010PropOp40
 70
     1
102
RTVSPost2010Prop41ColorIndex
 90
       18
102
RTVSPost2010Prop41ColorRGB
 90
        0
102
RTVSPost2010PropOp41
 70
     1
102
RTVSPost2010Prop42
 90
       50
102
RTVSPost2010PropOp42
 70
     1
102
RTVSPost2010Prop43
 90
        3
102
RTVSPost2010PropOp43
 70
     1
102
RTVSPost2010Prop44ColorIndex
 90
        5
102
RTVSPost2010Prop44ColorRGB
 90
      255
102
RTVSPost2010PropOp44
 70
     1
102
RTVSPost2010Prop45
280
     0
102
RTVSPost2010PropOp45
 70
     1
102
RTVSPost2010Prop46
 90
       50
102
RTVSPost2010PropOp46
 70
     1
102
RTVSPost2010Prop47
 90
       50
102
RTVSPost2010PropOp47
 70
     1
102
RTVSPost2010Prop48
 90
       50
102
RTVSPost2010PropOp48
 70
     1
102
RTVSPost2010Prop49
280
     0
102
RTVSPost2010PropOp49
 70
     1
102
RTVSPost2010Prop50
 90
       50
102
RTVSPost2010PropOp50
 70
     1
102
RTVSPost2010Prop51ColorIndex
 90
      256
102
RTVSPost2010Prop51ColorRGB
 90
-16777216
102
RTVSPost2010PropOp51
 70
     0
102
RTVSPost2010Prop52
140
1.0
102
RTVSPost2010PropOp52
 70
     0
102
RTVSPost2010Prop53
 90
        2
102
RTVSPost2010PropOp53
 70
     1
102
RTVSPost2010Prop54
  1
strokes_ogs.tif
102
RTVSPost2010PropOp54
 70
     1
102
RTVSPost2010Prop55
280
     0
102
RTVSPost2010PropOp55
 70
     1
102
RTVSPost2010Prop56
140
1.0
102
RTVSPost2010PropOp56
 70
     1
102
RTVSPost2010Prop57
140
1.0
102
RTVSPost2010PropOp57
 70
     1
  0
XRECORD
  5
28A
102
{ACAD_REACTORS
330
289
102
}
330
289
100
AcDbXrecord
280
     1
102
RTVSPropertyOp0
 70
     1
102
RTVSPropertyOp1
 70
     1
102
RTVSPropertyOp2
 70
     1
102
RTVSPropertyOp3
 70
     1
102
RTVSPropertyOp4
 70
     1
102
RTVSPropertyOp5
 70
     1
102
RTVSPropertyOp6
 70
     1
102
RTVSPropertyOp7
 70
     1
102
RTVSPropertyOp8
 70
     1
102
RTVSPropertyOp9
 70
     1
102
RTVSPropertyOp10
 70
     1
102
RTVSPropertyOp11
 70
     1
102
RTVSPropertyOp12
 70
     1
102
RTVSPropertyOp13
 70
     1
102
RTVSPropertyOp14
 70
     1
102
RTVSPropertyOp15
 70
     1
102
RTVSPropertyOp16
 70
     1
102
RTVSPropertyOp17
 70
     1
102
RTVSPropertyOp18
 70
     1
102
RTVSPropertyOp19
 70
     1
102
RTVSPropertyOp20
 70
     1
102
RTVSPropertyOp21
 70
     1
102
RTVSPropertyOp22
 70
     1
102
RTVSPropertyOp23
 70
     1
102
RTVSPropertyOp24
 70
     1
102
RTVSPropertyOp25
 70
     1
102
RTVSPropertyOp26
 70
     1
102
RTVSPropertyOp27
 70
     1
102
RTVSPropertyOp28
 70
     1
102
RTVSPropertyOp29
 70
     1
102
RTVSPropertyOp30
 70
     1
102
RTVSPropertyOp31
 70
     1
102
RTVSPropertyOp32
 70
     1
102
RTVSPropertyOp33
 70
     1
102
RTVSPropertyOp34
 70
     1
102
RTVSPropertyOp35
 70
     1
102
RTVSPropertyOp36
 70
     1
102
RTVSPropertyOp37
 70
     1
102
RTVSPropertyOp38
 70
     1
102
RTVSPropertyOp39
 70
     1
102
RTVSPropertyOp40
 70
     1
102
RTVSPropertyOp41
 70
     1
102
RTVSPropertyOp42
 70
     1
102
RTVSPropertyOp43
 70
     1
102
RTVSPropertyOp44
 70
     1
102
RTVSPropertyOp45
 70
     1
102
RTVSPropertyOp46
 70
     1
102
RTVSPropertyOp47
 70
     1
102
RTVSPropertyOp48
 70
     1
102
RTVSPropertyOp49
 70
     1
102
RTVSPropertyOp50
 70
     1
102
RTVSPropertyOp51
 70
     0
102
RTVSPropertyOp52
 70
     0
102
RTVSPropertyOp53
 70
     1
102
RTVSPropertyOp54
 70
     1
102
RTVSPropertyOp55
 70
     1
102
RTVSPropertyOp56
 70
     1
102
RTVSPropertyOp57
 70
     1
102
RTVSPost2010Prop28
280
     0
102
RTVSPost2010PropOp28
 70
     1
102
RTVSPost2010Prop29
280
     1
102
RTVSPost2010PropOp29
 70
     1
102
RTVSPost2010Prop30
280
     1
102
RTVSPost2010PropOp30
 70
     1
102
RTVSPost2010Prop31
280
     0
102
RTVSPost2010PropOp31
 70
     1
102
RTVSPost2010Prop32
280
     0
102
RTVSPost2010PropOp32
 70
     1
102
RTVSPost2010Prop33
280
     0
102
RTVSPost2010PropOp33
 70
     1
102
RTVSPost2010Prop34
280
     0
102
RTVSPost2010PropOp34
 70
     1
102
RTVSPost2010Prop35
280
     0
102
RTVSPost2010PropOp35
 70
     1
102
RTVSPost2010Prop36
280
     0
102
RTVSPost2010PropOp36
 70
     1
102
RTVSPost2010Prop37
 90
       50
102
RTVSPost2010PropOp37
 70
     1
102
RTVSPost2010Prop38
140
0.0
102
RTVSPost2010PropOp38
 70
     1
102
RTVSPost2010Prop39
140
1.0
102
RTVSPost2010PropOp39
 70
     1
102
RTVSPost2010Prop40
 90
        0
102
RTVSPost2010PropOp40
 70
     1
102
RTVSPost2010Prop41ColorIndex
 90
       18
102
RTVSPost2010Prop41ColorRGB
 90
        0
102
RTVSPost2010PropOp41
 70
     1
102
RTVSPost2010Prop42
 90
       50
102
RTVSPost2010PropOp42
 70
     1
102
RTVSPost2010Prop43
 90
        3
102
RTVSPost2010PropOp43
 70
     1
102
RTVSPost2010Prop44ColorIndex
 90
        5
102
RTVSPost2010Prop44ColorRGB
 90
      255
102
RTVSPost2010PropOp44
 70
     1
102
RTVSPost2010Prop45
280
     0
102
RTVSPost2010PropOp45
 70
     1
102
RTVSPost2010Prop46
 90
       50
102
RTVSPost2010PropOp46
 70
     1
102
RTVSPost2010Prop47
 90
       50
102
RTVSPost2010PropOp47
 70
     1
102
RTVSPost2010Prop48
 90
       50
102
RTVSPost2010PropOp48
 70
     1
102
RTVSPost2010Prop49
280
     0
102
RTVSPost2010PropOp49
 70
     1
102
RTVSPost2010Prop50
 90
       50
102
RTVSPost2010PropOp50
 70
     1
102
RTVSPost2010Prop51ColorIndex
 90
      256
102
RTVSPost2010Prop51ColorRGB
 90
-16777216
102
RTVSPost2010PropOp51
 70
     0
102
RTVSPost2010Prop52
140
1.0
102
RTVSPost2010PropOp52
 70
     0
102
RTVSPost2010Prop53
 90
        2
102
RTVSPost2010PropOp53
 70
     1
102
RTVSPost2010Prop54
  1
strokes_ogs.tif
102
RTVSPost2010PropOp54
 70
     1
102
RTVSPost2010Prop55
280
     0
102
RTVSPost2010PropOp55
 70
     1
102
RTVSPost2010Prop56
140
1.0
102
RTVSPost2010PropOp56
 70
     1
102
RTVSPost2010Prop57
140
1.0
102
RTVSPost2010PropOp57
 70
     1
  0
XRECORD
  5
28C
102
{ACAD_REACTORS
330
28B
102
}
330
28B
100
AcDbXrecord
280
     1
102
RTVSPropertyOp0
 70
     1
102
RTVSPropertyOp1
 70
     1
102
RTVSPropertyOp2
 70
     1
102
RTVSPropertyOp3
 70
     1
102
RTVSPropertyOp4
 70
     1
102
RTVSPropertyOp5
 70
     1
102
RTVSPropertyOp6
 70
     1
102
RTVSPropertyOp7
 70
     1
102
RTVSPropertyOp8
 70
     1
102
RTVSPropertyOp9
 70
     1
102
RTVSPropertyOp10
 70
     1
102
RTVSPropertyOp11
 70
     1
102
RTVSPropertyOp12
 70
     1
102
RTVSPropertyOp13
 70
     1
102
RTVSPropertyOp14
 70
     1
102
RTVSPropertyOp15
 70
     1
102
RTVSPropertyOp16
 70
     1
102
RTVSPropertyOp17
 70
     1
102
RTVSPropertyOp18
 70
     1
102
RTVSPropertyOp19
 70
     1
102
RTVSPropertyOp20
 70
     1
102
RTVSPropertyOp21
 70
     1
102
RTVSPropertyOp22
 70
     1
102
RTVSPropertyOp23
 70
     1
102
RTVSPropertyOp24
 70
     1
102
RTVSPropertyOp25
 70
     1
102
RTVSPropertyOp26
 70
     1
102
RTVSPropertyOp27
 70
     1
102
RTVSPropertyOp28
 70
     1
102
RTVSPropertyOp29
 70
     1
102
RTVSPropertyOp30
 70
     1
102
RTVSPropertyOp31
 70
     1
102
RTVSPropertyOp32
 70
     1
102
RTVSPropertyOp33
 70
     1
102
RTVSPropertyOp34
 70
     1
102
RTVSPropertyOp35
 70
     1
102
RTVSPropertyOp36
 70
     1
102
RTVSPropertyOp37
 70
     1
102
RTVSPropertyOp38
 70
     1
102
RTVSPropertyOp39
 70
     1
102
RTVSPropertyOp40
 70
     1
102
RTVSPropertyOp41
 70
     1
102
RTVSPropertyOp42
 70
     1
102
RTVSPropertyOp43
 70
     1
102
RTVSPropertyOp44
 70
     1
102
RTVSPropertyOp45
 70
     1
102
RTVSPropertyOp46
 70
     1
102
RTVSPropertyOp47
 70
     1
102
RTVSPropertyOp48
 70
     1
102
RTVSPropertyOp49
 70
     1
102
RTVSPropertyOp50
 70
     1
102
RTVSPropertyOp51
 70
     0
102
RTVSPropertyOp52
 70
     0
102
RTVSPropertyOp53
 70
     1
102
RTVSPropertyOp54
 70
     1
102
RTVSPropertyOp55
 70
     1
102
RTVSPropertyOp56
 70
     1
102
RTVSPropertyOp57
 70
     1
102
RTVSPost2010Prop28
280
     0
102
RTVSPost2010PropOp28
 70
     1
102
RTVSPost2010Prop29
280
     1
102
RTVSPost2010PropOp29
 70
     1
102
RTVSPost2010Prop30
280
     1
102
RTVSPost2010PropOp30
 70
     1
102
RTVSPost2010Prop31
280
     0
102
RTVSPost2010PropOp31
 70
     1
102
RTVSPost2010Prop32
280
     0
102
RTVSPost2010PropOp32
 70
     1
102
RTVSPost2010Prop33
280
     0
102
RTVSPost2010PropOp33
 70
     1
102
RTVSPost2010Prop34
280
     0
102
RTVSPost2010PropOp34
 70
     1
102
RTVSPost2010Prop35
280
     0
102
RTVSPost2010PropOp35
 70
     1
102
RTVSPost2010Prop36
280
     0
102
RTVSPost2010PropOp36
 70
     1
102
RTVSPost2010Prop37
 90
       50
102
RTVSPost2010PropOp37
 70
     1
102
RTVSPost2010Prop38
140
0.0
102
RTVSPost2010PropOp38
 70
     1
102
RTVSPost2010Prop39
140
1.0
102
RTVSPost2010PropOp39
 70
     1
102
RTVSPost2010Prop40
 90
        0
102
RTVSPost2010PropOp40
 70
     1
102
RTVSPost2010Prop41ColorIndex
 90
       18
102
RTVSPost2010Prop41ColorRGB
 90
        0
102
RTVSPost2010PropOp41
 70
     1
102
RTVSPost2010Prop42
 90
       50
102
RTVSPost2010PropOp42
 70
     1
102
RTVSPost2010Prop43
 90
        3
102
RTVSPost2010PropOp43
 70
     1
102
RTVSPost2010Prop44ColorIndex
 90
        5
102
RTVSPost2010Prop44ColorRGB
 90
      255
102
RTVSPost2010PropOp44
 70
     1
102
RTVSPost2010Prop45
280
     0
102
RTVSPost2010PropOp45
 70
     1
102
RTVSPost2010Prop46
 90
       50
102
RTVSPost2010PropOp46
 70
     1
102
RTVSPost2010Prop47
 90
       50
102
RTVSPost2010PropOp47
 70
     1
102
RTVSPost2010Prop48
 90
       50
102
RTVSPost2010PropOp48
 70
     1
102
RTVSPost2010Prop49
280
     0
102
RTVSPost2010PropOp49
 70
     1
102
RTVSPost2010Prop50
 90
       50
102
RTVSPost2010PropOp50
 70
     1
102
RTVSPost2010Prop51ColorIndex
 90
      256
102
RTVSPost2010Prop51ColorRGB
 90
-16777216
102
RTVSPost2010PropOp51
 70
     0
102
RTVSPost2010Prop52
140
1.0
102
RTVSPost2010PropOp52
 70
     0
102
RTVSPost2010Prop53
 90
        2
102
RTVSPost2010PropOp53
 70
     1
102
RTVSPost2010Prop54
  1
strokes_ogs.tif
102
RTVSPost2010PropOp54
 70
     1
102
RTVSPost2010Prop55
280
     0
102
RTVSPost2010PropOp55
 70
     1
102
RTVSPost2010Prop56
140
1.0
102
RTVSPost2010PropOp56
 70
     1
102
RTVSPost2010Prop57
140
1.0
102
RTVSPost2010PropOp57
 70
     1
  0
XRECORD
  5
28E
102
{ACAD_REACTORS
330
28D
102
}
330
28D
100
AcDbXrecord
280
     1
102
RTVSPropertyOp0
 70
     1
102
RTVSPropertyOp1
 70
     1
102
RTVSPropertyOp2
 70
     1
102
RTVSPropertyOp3
 70
     1
102
RTVSPropertyOp4
 70
     1
102
RTVSPropertyOp5
 70
     1
102
RTVSPropertyOp6
 70
     1
102
RTVSPropertyOp7
 70
     1
102
RTVSPropertyOp8
 70
     1
102
RTVSPropertyOp9
 70
     1
102
RTVSPropertyOp10
 70
     1
102
RTVSPropertyOp11
 70
     1
102
RTVSPropertyOp12
 70
     1
102
RTVSPropertyOp13
 70
     1
102
RTVSPropertyOp14
 70
     1
102
RTVSPropertyOp15
 70
     1
102
RTVSPropertyOp16
 70
     1
102
RTVSPropertyOp17
 70
     1
102
RTVSPropertyOp18
 70
     1
102
RTVSPropertyOp19
 70
     1
102
RTVSPropertyOp20
 70
     1
102
RTVSPropertyOp21
 70
     1
102
RTVSPropertyOp22
 70
     1
102
RTVSPropertyOp23
 70
     1
102
RTVSPropertyOp24
 70
     1
102
RTVSPropertyOp25
 70
     1
102
RTVSPropertyOp26
 70
     1
102
RTVSPropertyOp27
 70
     1
102
RTVSPropertyOp28
 70
     1
102
RTVSPropertyOp29
 70
     1
102
RTVSPropertyOp30
 70
     1
102
RTVSPropertyOp31
 70
     1
102
RTVSPropertyOp32
 70
     1
102
RTVSPropertyOp33
 70
     1
102
RTVSPropertyOp34
 70
     1
102
RTVSPropertyOp35
 70
     1
102
RTVSPropertyOp36
 70
     1
102
RTVSPropertyOp37
 70
     1
102
RTVSPropertyOp38
 70
     1
102
RTVSPropertyOp39
 70
     1
102
RTVSPropertyOp40
 70
     1
102
RTVSPropertyOp41
 70
     1
102
RTVSPropertyOp42
 70
     1
102
RTVSPropertyOp43
 70
     1
102
RTVSPropertyOp44
 70
     1
102
RTVSPropertyOp45
 70
     1
102
RTVSPropertyOp46
 70
     1
102
RTVSPropertyOp47
 70
     1
102
RTVSPropertyOp48
 70
     1
102
RTVSPropertyOp49
 70
     1
102
RTVSPropertyOp50
 70
     1
102
RTVSPropertyOp51
 70
     0
102
RTVSPropertyOp52
 70
     0
102
RTVSPropertyOp53
 70
     1
102
RTVSPropertyOp54
 70
     1
102
RTVSPropertyOp55
 70
     1
102
RTVSPropertyOp56
 70
     1
102
RTVSPropertyOp57
 70
     1
102
RTVSPost2010Prop28
280
     0
102
RTVSPost2010PropOp28
 70
     1
102
RTVSPost2010Prop29
280
     1
102
RTVSPost2010PropOp29
 70
     1
102
RTVSPost2010Prop30
280
     1
102
RTVSPost2010PropOp30
 70
     1
102
RTVSPost2010Prop31
280
     0
102
RTVSPost2010PropOp31
 70
     1
102
RTVSPost2010Prop32
280
     0
102
RTVSPost2010PropOp32
 70
     1
102
RTVSPost2010Prop33
280
     0
102
RTVSPost2010PropOp33
 70
     1
102
RTVSPost2010Prop34
280
     0
102
RTVSPost2010PropOp34
 70
     1
102
RTVSPost2010Prop35
280
     0
102
RTVSPost2010PropOp35
 70
     1
102
RTVSPost2010Prop36
280
     0
102
RTVSPost2010PropOp36
 70
     1
102
RTVSPost2010Prop37
 90
       50
102
RTVSPost2010PropOp37
 70
     1
102
RTVSPost2010Prop38
140
0.0
102
RTVSPost2010PropOp38
 70
     1
102
RTVSPost2010Prop39
140
1.0
102
RTVSPost2010PropOp39
 70
     1
102
RTVSPost2010Prop40
 90
        0
102
RTVSPost2010PropOp40
 70
     1
102
RTVSPost2010Prop41ColorIndex
 90
       18
102
RTVSPost2010Prop41ColorRGB
 90
        0
102
RTVSPost2010PropOp41
 70
     1
102
RTVSPost2010Prop42
 90
       50
102
RTVSPost2010PropOp42
 70
     1
102
RTVSPost2010Prop43
 90
        3
102
RTVSPost2010PropOp43
 70
     1
102
RTVSPost2010Prop44ColorIndex
 90
        5
102
RTVSPost2010Prop44ColorRGB
 90
      255
102
RTVSPost2010PropOp44
 70
     1
102
RTVSPost2010Prop45
280
     0
102
RTVSPost2010PropOp45
 70
     1
102
RTVSPost2010Prop46
 90
       50
102
RTVSPost2010PropOp46
 70
     1
102
RTVSPost2010Prop47
 90
       50
102
RTVSPost2010PropOp47
 70
     1
102
RTVSPost2010Prop48
 90
       50
102
RTVSPost2010PropOp48
 70
     1
102
RTVSPost2010Prop49
280
     0
102
RTVSPost2010PropOp49
 70
     1
102
RTVSPost2010Prop50
 90
       50
102
RTVSPost2010PropOp50
 70
     1
102
RTVSPost2010Prop51ColorIndex
 90
      256
102
RTVSPost2010Prop51ColorRGB
 90
-16777216
102
RTVSPost2010PropOp51
 70
     0
102
RTVSPost2010Prop52
140
1.0
102
RTVSPost2010PropOp52
 70
     0
102
RTVSPost2010Prop53
 90
        2
102
RTVSPost2010PropOp53
 70
     1
102
RTVSPost2010Prop54
  1
strokes_ogs.tif
102
RTVSPost2010PropOp54
 70
     1
102
RTVSPost2010Prop55
280
     0
102
RTVSPost2010PropOp55
 70
     1
102
RTVSPost2010Prop56
140
1.0
102
RTVSPost2010PropOp56
 70
     1
102
RTVSPost2010Prop57
140
1.0
102
RTVSPost2010PropOp57
 70
     1
  0
XRECORD
  5
290
102
{ACAD_REACTORS
330
28F
102
}
330
28F
100
AcDbXrecord
280
     1
102
RTVSPropertyOp0
 70
     1
102
RTVSPropertyOp1
 70
     1
102
RTVSPropertyOp2
 70
     1
102
RTVSPropertyOp3
 70
     1
102
RTVSPropertyOp4
 70
     1
102
RTVSPropertyOp5
 70
     1
102
RTVSPropertyOp6
 70
     1
102
RTVSPropertyOp7
 70
     1
102
RTVSPropertyOp8
 70
     1
102
RTVSPropertyOp9
 70
     1
102
RTVSPropertyOp10
 70
     1
102
RTVSPropertyOp11
 70
     1
102
RTVSPropertyOp12
 70
     1
102
RTVSPropertyOp13
 70
     1
102
RTVSPropertyOp14
 70
     1
102
RTVSPropertyOp15
 70
     1
102
RTVSPropertyOp16
 70
     1
102
RTVSPropertyOp17
 70
     1
102
RTVSPropertyOp18
 70
     1
102
RTVSPropertyOp19
 70
     1
102
RTVSPropertyOp20
 70
     1
102
RTVSPropertyOp21
 70
     1
102
RTVSPropertyOp22
 70
     1
102
RTVSPropertyOp23
 70
     1
102
RTVSPropertyOp24
 70
     1
102
RTVSPropertyOp25
 70
     1
102
RTVSPropertyOp26
 70
     1
102
RTVSPropertyOp27
 70
     1
102
RTVSPropertyOp28
 70
     1
102
RTVSPropertyOp29
 70
     1
102
RTVSPropertyOp30
 70
     1
102
RTVSPropertyOp31
 70
     1
102
RTVSPropertyOp32
 70
     1
102
RTVSPropertyOp33
 70
     1
102
RTVSPropertyOp34
 70
     1
102
RTVSPropertyOp35
 70
     1
102
RTVSPropertyOp36
 70
     1
102
RTVSPropertyOp37
 70
     1
102
RTVSPropertyOp38
 70
     1
102
RTVSPropertyOp39
 70
     1
102
RTVSPropertyOp40
 70
     1
102
RTVSPropertyOp41
 70
     1
102
RTVSPropertyOp42
 70
     1
102
RTVSPropertyOp43
 70
     1
102
RTVSPropertyOp44
 70
     1
102
RTVSPropertyOp45
 70
     1
102
RTVSPropertyOp46
 70
     1
102
RTVSPropertyOp47
 70
     1
102
RTVSPropertyOp48
 70
     1
102
RTVSPropertyOp49
 70
     1
102
RTVSPropertyOp50
 70
     1
102
RTVSPropertyOp51
 70
     0
102
RTVSPropertyOp52
 70
     0
102
RTVSPropertyOp53
 70
     1
102
RTVSPropertyOp54
 70
     1
102
RTVSPropertyOp55
 70
     1
102
RTVSPropertyOp56
 70
     1
102
RTVSPropertyOp57
 70
     1
102
RTVSPost2010Prop28
280
     0
102
RTVSPost2010PropOp28
 70
     1
102
RTVSPost2010Prop29
280
     1
102
RTVSPost2010PropOp29
 70
     1
102
RTVSPost2010Prop30
280
     1
102
RTVSPost2010PropOp30
 70
     1
102
RTVSPost2010Prop31
280
     0
102
RTVSPost2010PropOp31
 70
     1
102
RTVSPost2010Prop32
280
     0
102
RTVSPost2010PropOp32
 70
     1
102
RTVSPost2010Prop33
280
     0
102
RTVSPost2010PropOp33
 70
     1
102
RTVSPost2010Prop34
280
     0
102
RTVSPost2010PropOp34
 70
     1
102
RTVSPost2010Prop35
280
     0
102
RTVSPost2010PropOp35
 70
     1
102
RTVSPost2010Prop36
280
     0
102
RTVSPost2010PropOp36
 70
     1
102
RTVSPost2010Prop37
 90
       50
102
RTVSPost2010PropOp37
 70
     1
102
RTVSPost2010Prop38
140
0.0
102
RTVSPost2010PropOp38
 70
     1
102
RTVSPost2010Prop39
140
1.0
102
RTVSPost2010PropOp39
 70
     1
102
RTVSPost2010Prop40
 90
        0
102
RTVSPost2010PropOp40
 70
     1
102
RTVSPost2010Prop41ColorIndex
 90
       18
102
RTVSPost2010Prop41ColorRGB
 90
        0
102
RTVSPost2010PropOp41
 70
     1
102
RTVSPost2010Prop42
 90
       50
102
RTVSPost2010PropOp42
 70
     1
102
RTVSPost2010Prop43
 90
        3
102
RTVSPost2010PropOp43
 70
     1
102
RTVSPost2010Prop44ColorIndex
 90
        5
102
RTVSPost2010Prop44ColorRGB
 90
      255
102
RTVSPost2010PropOp44
 70
     1
102
RTVSPost2010Prop45
280
     0
102
RTVSPost2010PropOp45
 70
     1
102
RTVSPost2010Prop46
 90
       50
102
RTVSPost2010PropOp46
 70
     1
102
RTVSPost2010Prop47
 90
       50
102
RTVSPost2010PropOp47
 70
     1
102
RTVSPost2010Prop48
 90
       50
102
RTVSPost2010PropOp48
 70
     1
102
RTVSPost2010Prop49
280
     0
102
RTVSPost2010PropOp49
 70
     1
102
RTVSPost2010Prop50
 90
       50
102
RTVSPost2010PropOp50
 70
     1
102
RTVSPost2010Prop51ColorIndex
 90
      256
102
RTVSPost2010Prop51ColorRGB
 90
-16777216
102
RTVSPost2010PropOp51
 70
     0
102
RTVSPost2010Prop52
140
1.0
102
RTVSPost2010PropOp52
 70
     0
102
RTVSPost2010Prop53
 90
        2
102
RTVSPost2010PropOp53
 70
     1
102
RTVSPost2010Prop54
  1
strokes_ogs.tif
102
RTVSPost2010PropOp54
 70
     1
102
RTVSPost2010Prop55
280
     0
102
RTVSPost2010PropOp55
 70
     1
102
RTVSPost2010Prop56
140
1.0
102
RTVSPost2010PropOp56
 70
     1
102
RTVSPost2010Prop57
140
1.0
102
RTVSPost2010PropOp57
 70
     1
  0
XRECORD
  5
296
102
{ACAD_REACTORS
330
295
102
}
330
295
100
AcDbXrecord
280
     1
102
RTVSPropertyOp0
 70
     1
102
RTVSPropertyOp1
 70
     1
102
RTVSPropertyOp2
 70
     1
102
RTVSPropertyOp3
 70
     1
102
RTVSPropertyOp4
 70
     1
102
RTVSPropertyOp5
 70
     1
102
RTVSPropertyOp6
 70
     1
102
RTVSPropertyOp7
 70
     1
102
RTVSPropertyOp8
 70
     1
102
RTVSPropertyOp9
 70
     1
102
RTVSPropertyOp10
 70
     1
102
RTVSPropertyOp11
 70
     1
102
RTVSPropertyOp12
 70
     1
102
RTVSPropertyOp13
 70
     1
102
RTVSPropertyOp14
 70
     1
102
RTVSPropertyOp15
 70
     1
102
RTVSPropertyOp16
 70
     1
102
RTVSPropertyOp17
 70
     1
102
RTVSPropertyOp18
 70
     1
102
RTVSPropertyOp19
 70
     1
102
RTVSPropertyOp20
 70
     1
102
RTVSPropertyOp21
 70
     1
102
RTVSPropertyOp22
 70
     1
102
RTVSPropertyOp23
 70
     1
102
RTVSPropertyOp24
 70
     1
102
RTVSPropertyOp25
 70
     1
102
RTVSPropertyOp26
 70
     1
102
RTVSPropertyOp27
 70
     1
102
RTVSPropertyOp28
 70
     1
102
RTVSPropertyOp29
 70
     1
102
RTVSPropertyOp30
 70
     1
102
RTVSPropertyOp31
 70
     1
102
RTVSPropertyOp32
 70
     1
102
RTVSPropertyOp33
 70
     1
102
RTVSPropertyOp34
 70
     1
102
RTVSPropertyOp35
 70
     1
102
RTVSPropertyOp36
 70
     1
102
RTVSPropertyOp37
 70
     1
102
RTVSPropertyOp38
 70
     1
102
RTVSPropertyOp39
 70
     1
102
RTVSPropertyOp40
 70
     1
102
RTVSPropertyOp41
 70
     1
102
RTVSPropertyOp42
 70
     1
102
RTVSPropertyOp43
 70
     1
102
RTVSPropertyOp44
 70
     1
102
RTVSPropertyOp45
 70
     1
102
RTVSPropertyOp46
 70
     1
102
RTVSPropertyOp47
 70
     1
102
RTVSPropertyOp48
 70
     1
102
RTVSPropertyOp49
 70
     1
102
RTVSPropertyOp50
 70
     1
102
RTVSPropertyOp51
 70
     0
102
RTVSPropertyOp52
 70
     0
102
RTVSPropertyOp53
 70
     1
102
RTVSPropertyOp54
 70
     1
102
RTVSPropertyOp55
 70
     1
102
RTVSPropertyOp56
 70
     1
102
RTVSPropertyOp57
 70
     1
102
RTVSPost2010Prop28
280
     0
102
RTVSPost2010PropOp28
 70
     1
102
RTVSPost2010Prop29
280
     1
102
RTVSPost2010PropOp29
 70
     1
102
RTVSPost2010Prop30
280
     1
102
RTVSPost2010PropOp30
 70
     1
102
RTVSPost2010Prop31
280
     0
102
RTVSPost2010PropOp31
 70
     1
102
RTVSPost2010Prop32
280
     0
102
RTVSPost2010PropOp32
 70
     1
102
RTVSPost2010Prop33
280
     0
102
RTVSPost2010PropOp33
 70
     1
102
RTVSPost2010Prop34
280
     0
102
RTVSPost2010PropOp34
 70
     1
102
RTVSPost2010Prop35
280
     0
102
RTVSPost2010PropOp35
 70
     1
102
RTVSPost2010Prop36
280
     0
102
RTVSPost2010PropOp36
 70
     1
102
RTVSPost2010Prop37
 90
       50
102
RTVSPost2010PropOp37
 70
     1
102
RTVSPost2010Prop38
140
0.0
102
RTVSPost2010PropOp38
 70
     1
102
RTVSPost2010Prop39
140
1.0
102
RTVSPost2010PropOp39
 70
     1
102
RTVSPost2010Prop40
 90
        0
102
RTVSPost2010PropOp40
 70
     1
102
RTVSPost2010Prop41ColorIndex
 90
       18
102
RTVSPost2010Prop41ColorRGB
 90
        0
102
RTVSPost2010PropOp41
 70
     1
102
RTVSPost2010Prop42
 90
       50
102
RTVSPost2010PropOp42
 70
     1
102
RTVSPost2010Prop43
 90
        3
102
RTVSPost2010PropOp43
 70
     1
102
RTVSPost2010Prop44ColorIndex
 90
        5
102
RTVSPost2010Prop44ColorRGB
 90
      255
102
RTVSPost2010PropOp44
 70
     1
102
RTVSPost2010Prop45
280
     0
102
RTVSPost2010PropOp45
 70
     1
102
RTVSPost2010Prop46
 90
       50
102
RTVSPost2010PropOp46
 70
     1
102
RTVSPost2010Prop47
 90
       50
102
RTVSPost2010PropOp47
 70
     1
102
RTVSPost2010Prop48
 90
       50
102
RTVSPost2010PropOp48
 70
     1
102
RTVSPost2010Prop49
280
     0
102
RTVSPost2010PropOp49
 70
     1
102
RTVSPost2010Prop50
 90
       50
102
RTVSPost2010PropOp50
 70
     1
102
RTVSPost2010Prop51ColorIndex
 90
      256
102
RTVSPost2010Prop51ColorRGB
 90
-16777216
102
RTVSPost2010PropOp51
 70
     0
102
RTVSPost2010Prop52
140
1.0
102
RTVSPost2010PropOp52
 70
     0
102
RTVSPost2010Prop53
 90
        2
102
RTVSPost2010PropOp53
 70
     1
102
RTVSPost2010Prop54
  1
strokes_ogs.tif
102
RTVSPost2010PropOp54
 70
     1
102
RTVSPost2010Prop55
280
     0
102
RTVSPost2010PropOp55
 70
     1
102
RTVSPost2010Prop56
140
1.0
102
RTVSPost2010PropOp56
 70
     1
102
RTVSPost2010Prop57
140
1.0
102
RTVSPost2010PropOp57
 70
     1
  0
XRECORD
  5
2AA
102
{ACAD_REACTORS
330
2A9
102
}
330
2A9
100
AcDbXrecord
280
     1
102
RTVSPropertyOp0
 70
     0
102
RTVSPropertyOp1
 70
     0
102
RTVSPropertyOp2
 70
     0
102
RTVSPropertyOp3
 70
     0
102
RTVSPropertyOp4
 70
     0
102
RTVSPropertyOp5
 70
     0
102
RTVSPropertyOp6
 70
     0
102
RTVSPropertyOp7
 70
     0
102
RTVSPropertyOp8
 70
     0
102
RTVSPropertyOp9
 70
     0
102
RTVSPropertyOp10
 70
     0
102
RTVSPropertyOp11
 70
     0
102
RTVSPropertyOp12
 70
     0
102
RTVSPropertyOp13
 70
     0
102
RTVSPropertyOp14
 70
     2
102
RTVSPropertyOp15
 70
     0
102
RTVSPropertyOp16
 70
     0
102
RTVSPropertyOp17
 70
     0
102
RTVSPropertyOp18
 70
     0
102
RTVSPropertyOp19
 70
     0
102
RTVSPropertyOp20
 70
     0
102
RTVSPropertyOp21
 70
     0
102
RTVSPropertyOp22
 70
     0
102
RTVSPropertyOp23
 70
     0
102
RTVSPropertyOp24
 70
     0
102
RTVSPropertyOp25
 70
     0
102
RTVSPropertyOp26
 70
     0
102
RTVSPropertyOp27
 70
     0
102
RTVSPropertyOp28
 70
     0
102
RTVSPropertyOp29
 70
     0
102
RTVSPropertyOp30
 70
     0
102
RTVSPropertyOp31
 70
     0
102
RTVSPropertyOp32
 70
     0
102
RTVSPropertyOp33
 70
     0
102
RTVSPropertyOp34
 70
     0
102
RTVSPropertyOp35
 70
     0
102
RTVSPropertyOp36
 70
     0
102
RTVSPropertyOp37
 70
     0
102
RTVSPropertyOp38
 70
     0
102
RTVSPropertyOp39
 70
     0
102
RTVSPropertyOp40
 70
     0
102
RTVSPropertyOp41
 70
     0
102
RTVSPropertyOp42
 70
     0
102
RTVSPropertyOp43
 70
     0
102
RTVSPropertyOp44
 70
     0
102
RTVSPropertyOp45
 70
     0
102
RTVSPropertyOp46
 70
     0
102
RTVSPropertyOp47
 70
     0
102
RTVSPropertyOp48
 70
     0
102
RTVSPropertyOp49
 70
     0
102
RTVSPropertyOp50
 70
     0
102
RTVSPropertyOp51
 70
     0
102
RTVSPropertyOp52
 70
     0
102
RTVSPropertyOp53
 70
     0
102
RTVSPropertyOp54
 70
     0
102
RTVSPropertyOp55
 70
     0
102
RTVSPropertyOp56
 70
     0
102
RTVSPropertyOp57
 70
     0
102
RTVSPost2010Prop28
280
     0
102
RTVSPost2010PropOp28
 70
     0
102
RTVSPost2010Prop29
280
     1
102
RTVSPost2010PropOp29
 70
     0
102
RTVSPost2010Prop30
280
     1
102
RTVSPost2010PropOp30
 70
     0
102
RTVSPost2010Prop31
280
     0
102
RTVSPost2010PropOp31
 70
     0
102
RTVSPost2010Prop32
280
     0
102
RTVSPost2010PropOp32
 70
     0
102
RTVSPost2010Prop33
280
     0
102
RTVSPost2010PropOp33
 70
     0
102
RTVSPost2010Prop34
280
     0
102
RTVSPost2010PropOp34
 70
     0
102
RTVSPost2010Prop35
280
     0
102
RTVSPost2010PropOp35
 70
     0
102
RTVSPost2010Prop36
280
     0
102
RTVSPost2010PropOp36
 70
     0
102
RTVSPost2010Prop37
 90
       50
102
RTVSPost2010PropOp37
 70
     0
102
RTVSPost2010Prop38
140
0.0
102
RTVSPost2010PropOp38
 70
     0
102
RTVSPost2010Prop39
140
1.0
102
RTVSPost2010PropOp39
 70
     0
102
RTVSPost2010Prop40
 90
        0
102
RTVSPost2010PropOp40
 70
     0
102
RTVSPost2010Prop41ColorIndex
 90
       18
102
RTVSPost2010Prop41ColorRGB
 90
        0
102
RTVSPost2010PropOp41
 70
     0
102
RTVSPost2010Prop42
 90
       50
102
RTVSPost2010PropOp42
 70
     0
102
RTVSPost2010Prop43
 90
        3
102
RTVSPost2010PropOp43
 70
     0
102
RTVSPost2010Prop44ColorIndex
 90
        5
102
RTVSPost2010Prop44ColorRGB
 90
      255
102
RTVSPost2010PropOp44
 70
     0
102
RTVSPost2010Prop45
280
     0
102
RTVSPost2010PropOp45
 70
     0
102
RTVSPost2010Prop46
 90
       50
102
RTVSPost2010PropOp46
 70
     0
102
RTVSPost2010Prop47
 90
       50
102
RTVSPost2010PropOp47
 70
     0
102
RTVSPost2010Prop48
 90
       50
102
RTVSPost2010PropOp48
 70
     0
102
RTVSPost2010Prop49
280
     0
102
RTVSPost2010PropOp49
 70
     0
102
RTVSPost2010Prop50
 90
       50
102
RTVSPost2010PropOp50
 70
     0
102
RTVSPost2010Prop51ColorIndex
 90
      256
102
RTVSPost2010Prop51ColorRGB
 90
-16777216
102
RTVSPost2010PropOp51
 70
     0
102
RTVSPost2010Prop52
140
1.0
102
RTVSPost2010PropOp52
 70
     0
102
RTVSPost2010Prop53
 90
        2
102
RTVSPost2010PropOp53
 70
     0
102
RTVSPost2010Prop54
  1
strokes_ogs.tif
102
RTVSPost2010PropOp54
 70
     0
102
RTVSPost2010Prop55
280
     0
102
RTVSPost2010PropOp55
 70
     0
102
RTVSPost2010Prop56
140
1.0
102
RTVSPost2010PropOp56
 70
     0
102
RTVSPost2010Prop57
140
1.0
102
RTVSPost2010PropOp57
 70
     0
  0
XRECORD
  5
2A4
102
{ACAD_REACTORS
330
2A3
102
}
330
2A3
100
AcDbXrecord
280
     1
102
RTVSPropertyOp0
 70
     1
102
RTVSPropertyOp1
 70
     1
102
RTVSPropertyOp2
 70
     1
102
RTVSPropertyOp3
 70
     1
102
RTVSPropertyOp4
 70
     1
102
RTVSPropertyOp5
 70
     1
102
RTVSPropertyOp6
 70
     1
102
RTVSPropertyOp7
 70
     1
102
RTVSPropertyOp8
 70
     1
102
RTVSPropertyOp9
 70
     1
102
RTVSPropertyOp10
 70
     1
102
RTVSPropertyOp11
 70
     1
102
RTVSPropertyOp12
 70
     1
102
RTVSPropertyOp13
 70
     1
102
RTVSPropertyOp14
 70
     1
102
RTVSPropertyOp15
 70
     1
102
RTVSPropertyOp16
 70
     1
102
RTVSPropertyOp17
 70
     1
102
RTVSPropertyOp18
 70
     1
102
RTVSPropertyOp19
 70
     1
102
RTVSPropertyOp20
 70
     1
102
RTVSPropertyOp21
 70
     1
102
RTVSPropertyOp22
 70
     1
102
RTVSPropertyOp23
 70
     1
102
RTVSPropertyOp24
 70
     1
102
RTVSPropertyOp25
 70
     1
102
RTVSPropertyOp26
 70
     1
102
RTVSPropertyOp27
 70
     1
102
RTVSPropertyOp28
 70
     1
102
RTVSPropertyOp29
 70
     1
102
RTVSPropertyOp30
 70
     1
102
RTVSPropertyOp31
 70
     1
102
RTVSPropertyOp32
 70
     1
102
RTVSPropertyOp33
 70
     1
102
RTVSPropertyOp34
 70
     1
102
RTVSPropertyOp35
 70
     1
102
RTVSPropertyOp36
 70
     1
102
RTVSPropertyOp37
 70
     1
102
RTVSPropertyOp38
 70
     1
102
RTVSPropertyOp39
 70
     1
102
RTVSPropertyOp40
 70
     1
102
RTVSPropertyOp41
 70
     1
102
RTVSPropertyOp42
 70
     1
102
RTVSPropertyOp43
 70
     1
102
RTVSPropertyOp44
 70
     1
102
RTVSPropertyOp45
 70
     1
102
RTVSPropertyOp46
 70
     1
102
RTVSPropertyOp47
 70
     1
102
RTVSPropertyOp48
 70
     1
102
RTVSPropertyOp49
 70
     1
102
RTVSPropertyOp50
 70
     1
102
RTVSPropertyOp51
 70
     0
102
RTVSPropertyOp52
 70
     0
102
RTVSPropertyOp53
 70
     1
102
RTVSPropertyOp54
 70
     1
102
RTVSPropertyOp55
 70
     1
102
RTVSPropertyOp56
 70
     1
102
RTVSPropertyOp57
 70
     1
102
RTVSPost2010Prop28
280
     0
102
RTVSPost2010PropOp28
 70
     1
102
RTVSPost2010Prop29
280
     1
102
RTVSPost2010PropOp29
 70
     1
102
RTVSPost2010Prop30
280
     1
102
RTVSPost2010PropOp30
 70
     1
102
RTVSPost2010Prop31
280
     0
102
RTVSPost2010PropOp31
 70
     1
102
RTVSPost2010Prop32
280
     0
102
RTVSPost2010PropOp32
 70
     1
102
RTVSPost2010Prop33
280
     0
102
RTVSPost2010PropOp33
 70
     1
102
RTVSPost2010Prop34
280
     0
102
RTVSPost2010PropOp34
 70
     1
102
RTVSPost2010Prop35
280
     0
102
RTVSPost2010PropOp35
 70
     1
102
RTVSPost2010Prop36
280
     0
102
RTVSPost2010PropOp36
 70
     1
102
RTVSPost2010Prop37
 90
       50
102
RTVSPost2010PropOp37
 70
     1
102
RTVSPost2010Prop38
140
0.0
102
RTVSPost2010PropOp38
 70
     1
102
RTVSPost2010Prop39
140
1.0
102
RTVSPost2010PropOp39
 70
     1
102
RTVSPost2010Prop40
 90
        0
102
RTVSPost2010PropOp40
 70
     1
102
RTVSPost2010Prop41ColorIndex
 90
       18
102
RTVSPost2010Prop41ColorRGB
 90
        0
102
RTVSPost2010PropOp41
 70
     1
102
RTVSPost2010Prop42
 90
       50
102
RTVSPost2010PropOp42
 70
     1
102
RTVSPost2010Prop43
 90
        3
102
RTVSPost2010PropOp43
 70
     1
102
RTVSPost2010Prop44ColorIndex
 90
        5
102
RTVSPost2010Prop44ColorRGB
 90
      255
102
RTVSPost2010PropOp44
 70
     1
102
RTVSPost2010Prop45
280
     0
102
RTVSPost2010PropOp45
 70
     1
102
RTVSPost2010Prop46
 90
       50
102
RTVSPost2010PropOp46
 70
     1
102
RTVSPost2010Prop47
 90
       50
102
RTVSPost2010PropOp47
 70
     1
102
RTVSPost2010Prop48
 90
       50
102
RTVSPost2010PropOp48
 70
     1
102
RTVSPost2010Prop49
280
     0
102
RTVSPost2010PropOp49
 70
     1
102
RTVSPost2010Prop50
 90
       50
102
RTVSPost2010PropOp50
 70
     1
102
RTVSPost2010Prop51ColorIndex
 90
      256
102
RTVSPost2010Prop51ColorRGB
 90
-16777216
102
RTVSPost2010PropOp51
 70
     0
102
RTVSPost2010Prop52
140
1.0
102
RTVSPost2010PropOp52
 70
     0
102
RTVSPost2010Prop53
 90
        2
102
RTVSPost2010PropOp53
 70
     1
102
RTVSPost2010Prop54
  1
strokes_ogs.tif
102
RTVSPost2010PropOp54
 70
     1
102
RTVSPost2010Prop55
280
     0
102
RTVSPost2010PropOp55
 70
     1
102
RTVSPost2010Prop56
140
1.0
102
RTVSPost2010PropOp56
 70
     1
102
RTVSPost2010Prop57
140
1.0
102
RTVSPost2010PropOp57
 70
     1
  0
XRECORD
  5
2AC
102
{ACAD_REACTORS
330
2AB
102
}
330
2AB
100
AcDbXrecord
280
     1
102
RTVSPropertyOp0
 70
     0
102
RTVSPropertyOp1
 70
     0
102
RTVSPropertyOp2
 70
     0
102
RTVSPropertyOp3
 70
     0
102
RTVSPropertyOp4
 70
     0
102
RTVSPropertyOp5
 70
     0
102
RTVSPropertyOp6
 70
     0
102
RTVSPropertyOp7
 70
     0
102
RTVSPropertyOp8
 70
     0
102
RTVSPropertyOp9
 70
     0
102
RTVSPropertyOp10
 70
     0
102
RTVSPropertyOp11
 70
     0
102
RTVSPropertyOp12
 70
     0
102
RTVSPropertyOp13
 70
     0
102
RTVSPropertyOp14
 70
     2
102
RTVSPropertyOp15
 70
     0
102
RTVSPropertyOp16
 70
     0
102
RTVSPropertyOp17
 70
     0
102
RTVSPropertyOp18
 70
     0
102
RTVSPropertyOp19
 70
     0
102
RTVSPropertyOp20
 70
     0
102
RTVSPropertyOp21
 70
     0
102
RTVSPropertyOp22
 70
     0
102
RTVSPropertyOp23
 70
     0
102
RTVSPropertyOp24
 70
     0
102
RTVSPropertyOp25
 70
     0
102
RTVSPropertyOp26
 70
     0
102
RTVSPropertyOp27
 70
     0
102
RTVSPropertyOp28
 70
     0
102
RTVSPropertyOp29
 70
     0
102
RTVSPropertyOp30
 70
     0
102
RTVSPropertyOp31
 70
     0
102
RTVSPropertyOp32
 70
     0
102
RTVSPropertyOp33
 70
     0
102
RTVSPropertyOp34
 70
     0
102
RTVSPropertyOp35
 70
     0
102
RTVSPropertyOp36
 70
     0
102
RTVSPropertyOp37
 70
     0
102
RTVSPropertyOp38
 70
     0
102
RTVSPropertyOp39
 70
     0
102
RTVSPropertyOp40
 70
     0
102
RTVSPropertyOp41
 70
     0
102
RTVSPropertyOp42
 70
     0
102
RTVSPropertyOp43
 70
     0
102
RTVSPropertyOp44
 70
     0
102
RTVSPropertyOp45
 70
     0
102
RTVSPropertyOp46
 70
     0
102
RTVSPropertyOp47
 70
     0
102
RTVSPropertyOp48
 70
     0
102
RTVSPropertyOp49
 70
     0
102
RTVSPropertyOp50
 70
     0
102
RTVSPropertyOp51
 70
     0
102
RTVSPropertyOp52
 70
     0
102
RTVSPropertyOp53
 70
     0
102
RTVSPropertyOp54
 70
     0
102
RTVSPropertyOp55
 70
     0
102
RTVSPropertyOp56
 70
     0
102
RTVSPropertyOp57
 70
     0
102
RTVSPost2010Prop28
280
     0
102
RTVSPost2010PropOp28
 70
     0
102
RTVSPost2010Prop29
280
     1
102
RTVSPost2010PropOp29
 70
     0
102
RTVSPost2010Prop30
280
     1
102
RTVSPost2010PropOp30
 70
     0
102
RTVSPost2010Prop31
280
     0
102
RTVSPost2010PropOp31
 70
     0
102
RTVSPost2010Prop32
280
     0
102
RTVSPost2010PropOp32
 70
     0
102
RTVSPost2010Prop33
280
     0
102
RTVSPost2010PropOp33
 70
     0
102
RTVSPost2010Prop34
280
     0
102
RTVSPost2010PropOp34
 70
     0
102
RTVSPost2010Prop35
280
     0
102
RTVSPost2010PropOp35
 70
     0
102
RTVSPost2010Prop36
280
     0
102
RTVSPost2010PropOp36
 70
     0
102
RTVSPost2010Prop37
 90
       50
102
RTVSPost2010PropOp37
 70
     0
102
RTVSPost2010Prop38
140
0.0
102
RTVSPost2010PropOp38
 70
     0
102
RTVSPost2010Prop39
140
1.0
102
RTVSPost2010PropOp39
 70
     0
102
RTVSPost2010Prop40
 90
        0
102
RTVSPost2010PropOp40
 70
     0
102
RTVSPost2010Prop41ColorIndex
 90
       18
102
RTVSPost2010Prop41ColorRGB
 90
        0
102
RTVSPost2010PropOp41
 70
     0
102
RTVSPost2010Prop42
 90
       50
102
RTVSPost2010PropOp42
 70
     0
102
RTVSPost2010Prop43
 90
        3
102
RTVSPost2010PropOp43
 70
     0
102
RTVSPost2010Prop44ColorIndex
 90
        5
102
RTVSPost2010Prop44ColorRGB
 90
      255
102
RTVSPost2010PropOp44
 70
     0
102
RTVSPost2010Prop45
280
     0
102
RTVSPost2010PropOp45
 70
     0
102
RTVSPost2010Prop46
 90
       50
102
RTVSPost2010PropOp46
 70
     0
102
RTVSPost2010Prop47
 90
       50
102
RTVSPost2010PropOp47
 70
     0
102
RTVSPost2010Prop48
 90
       50
102
RTVSPost2010PropOp48
 70
     0
102
RTVSPost2010Prop49
280
     0
102
RTVSPost2010PropOp49
 70
     0
102
RTVSPost2010Prop50
 90
       50
102
RTVSPost2010PropOp50
 70
     0
102
RTVSPost2010Prop51ColorIndex
 90
      256
102
RTVSPost2010Prop51ColorRGB
 90
-16777216
102
RTVSPost2010PropOp51
 70
     0
102
RTVSPost2010Prop52
140
1.0
102
RTVSPost2010PropOp52
 70
     0
102
RTVSPost2010Prop53
 90
        2
102
RTVSPost2010PropOp53
 70
     0
102
RTVSPost2010Prop54
  1
strokes_ogs.tif
102
RTVSPost2010PropOp54
 70
     0
102
RTVSPost2010Prop55
280
     0
102
RTVSPost2010PropOp55
 70
     0
102
RTVSPost2010Prop56
140
1.0
102
RTVSPost2010PropOp56
 70
     0
102
RTVSPost2010Prop57
140
1.0
102
RTVSPost2010PropOp57
 70
     0
  0
XRECORD
  5
29A
102
{ACAD_REACTORS
330
299
102
}
330
299
100
AcDbXrecord
280
     1
102
RTVSPropertyOp0
 70
     1
102
RTVSPropertyOp1
 70
     1
102
RTVSPropertyOp2
 70
     1
102
RTVSPropertyOp3
 70
     1
102
RTVSPropertyOp4
 70
     1
102
RTVSPropertyOp5
 70
     1
102
RTVSPropertyOp6
 70
     1
102
RTVSPropertyOp7
 70
     1
102
RTVSPropertyOp8
 70
     1
102
RTVSPropertyOp9
 70
     1
102
RTVSPropertyOp10
 70
     1
102
RTVSPropertyOp11
 70
     1
102
RTVSPropertyOp12
 70
     1
102
RTVSPropertyOp13
 70
     1
102
RTVSPropertyOp14
 70
     1
102
RTVSPropertyOp15
 70
     1
102
RTVSPropertyOp16
 70
     1
102
RTVSPropertyOp17
 70
     1
102
RTVSPropertyOp18
 70
     1
102
RTVSPropertyOp19
 70
     1
102
RTVSPropertyOp20
 70
     1
102
RTVSPropertyOp21
 70
     1
102
RTVSPropertyOp22
 70
     1
102
RTVSPropertyOp23
 70
     1
102
RTVSPropertyOp24
 70
     1
102
RTVSPropertyOp25
 70
     1
102
RTVSPropertyOp26
 70
     1
102
RTVSPropertyOp27
 70
     1
102
RTVSPropertyOp28
 70
     1
102
RTVSPropertyOp29
 70
     1
102
RTVSPropertyOp30
 70
     1
102
RTVSPropertyOp31
 70
     1
102
RTVSPropertyOp32
 70
     1
102
RTVSPropertyOp33
 70
     1
102
RTVSPropertyOp34
 70
     1
102
RTVSPropertyOp35
 70
     1
102
RTVSPropertyOp36
 70
     1
102
RTVSPropertyOp37
 70
     1
102
RTVSPropertyOp38
 70
     1
102
RTVSPropertyOp39
 70
     1
102
RTVSPropertyOp40
 70
     1
102
RTVSPropertyOp41
 70
     1
102
RTVSPropertyOp42
 70
     1
102
RTVSPropertyOp43
 70
     1
102
RTVSPropertyOp44
 70
     1
102
RTVSPropertyOp45
 70
     1
102
RTVSPropertyOp46
 70
     1
102
RTVSPropertyOp47
 70
     1
102
RTVSPropertyOp48
 70
     1
102
RTVSPropertyOp49
 70
     1
102
RTVSPropertyOp50
 70
     1
102
RTVSPropertyOp51
 70
     0
102
RTVSPropertyOp52
 70
     0
102
RTVSPropertyOp53
 70
     1
102
RTVSPropertyOp54
 70
     1
102
RTVSPropertyOp55
 70
     1
102
RTVSPropertyOp56
 70
     1
102
RTVSPropertyOp57
 70
     1
102
RTVSPost2010Prop28
280
     0
102
RTVSPost2010PropOp28
 70
     1
102
RTVSPost2010Prop29
280
     1
102
RTVSPost2010PropOp29
 70
     1
102
RTVSPost2010Prop30
280
     1
102
RTVSPost2010PropOp30
 70
     1
102
RTVSPost2010Prop31
280
     0
102
RTVSPost2010PropOp31
 70
     1
102
RTVSPost2010Prop32
280
     0
102
RTVSPost2010PropOp32
 70
     1
102
RTVSPost2010Prop33
280
     0
102
RTVSPost2010PropOp33
 70
     1
102
RTVSPost2010Prop34
280
     0
102
RTVSPost2010PropOp34
 70
     1
102
RTVSPost2010Prop35
280
     0
102
RTVSPost2010PropOp35
 70
     1
102
RTVSPost2010Prop36
280
     0
102
RTVSPost2010PropOp36
 70
     1
102
RTVSPost2010Prop37
 90
       50
102
RTVSPost2010PropOp37
 70
     1
102
RTVSPost2010Prop38
140
0.0
102
RTVSPost2010PropOp38
 70
     1
102
RTVSPost2010Prop39
140
1.0
102
RTVSPost2010PropOp39
 70
     1
102
RTVSPost2010Prop40
 90
        0
102
RTVSPost2010PropOp40
 70
     1
102
RTVSPost2010Prop41ColorIndex
 90
       18
102
RTVSPost2010Prop41ColorRGB
 90
        0
102
RTVSPost2010PropOp41
 70
     1
102
RTVSPost2010Prop42
 90
       50
102
RTVSPost2010PropOp42
 70
     1
102
RTVSPost2010Prop43
 90
        3
102
RTVSPost2010PropOp43
 70
     1
102
RTVSPost2010Prop44ColorIndex
 90
        5
102
RTVSPost2010Prop44ColorRGB
 90
      255
102
RTVSPost2010PropOp44
 70
     1
102
RTVSPost2010Prop45
280
     0
102
RTVSPost2010PropOp45
 70
     1
102
RTVSPost2010Prop46
 90
       50
102
RTVSPost2010PropOp46
 70
     1
102
RTVSPost2010Prop47
 90
       50
102
RTVSPost2010PropOp47
 70
     1
102
RTVSPost2010Prop48
 90
       50
102
RTVSPost2010PropOp48
 70
     1
102
RTVSPost2010Prop49
280
     0
102
RTVSPost2010PropOp49
 70
     1
102
RTVSPost2010Prop50
 90
       50
102
RTVSPost2010PropOp50
 70
     1
102
RTVSPost2010Prop51ColorIndex
 90
      256
102
RTVSPost2010Prop51ColorRGB
 90
-16777216
102
RTVSPost2010PropOp51
 70
     0
102
RTVSPost2010Prop52
140
1.0
102
RTVSPost2010PropOp52
 70
     0
102
RTVSPost2010Prop53
 90
        2
102
RTVSPost2010PropOp53
 70
     1
102
RTVSPost2010Prop54
  1
strokes_ogs.tif
102
RTVSPost2010PropOp54
 70
     1
102
RTVSPost2010Prop55
280
     0
102
RTVSPost2010PropOp55
 70
     1
102
RTVSPost2010Prop56
140
1.0
102
RTVSPost2010PropOp56
 70
     1
102
RTVSPost2010Prop57
140
1.0
102
RTVSPost2010PropOp57
 70
     1
  0
XRECORD
  5
2B8
102
{ACAD_REACTORS
330
2B7
102
}
330
2B7
100
AcDbXrecord
280
     1
102
RTVSPropertyOp0
 70
     1
102
RTVSPropertyOp1
 70
     1
102
RTVSPropertyOp2
 70
     1
102
RTVSPropertyOp3
 70
     1
102
RTVSPropertyOp4
 70
     1
102
RTVSPropertyOp5
 70
     1
102
RTVSPropertyOp6
 70
     1
102
RTVSPropertyOp7
 70
     1
102
RTVSPropertyOp8
 70
     1
102
RTVSPropertyOp9
 70
     1
102
RTVSPropertyOp10
 70
     1
102
RTVSPropertyOp11
 70
     1
102
RTVSPropertyOp12
 70
     1
102
RTVSPropertyOp13
 70
     1
102
RTVSPropertyOp14
 70
     1
102
RTVSPropertyOp15
 70
     1
102
RTVSPropertyOp16
 70
     1
102
RTVSPropertyOp17
 70
     1
102
RTVSPropertyOp18
 70
     1
102
RTVSPropertyOp19
 70
     1
102
RTVSPropertyOp20
 70
     1
102
RTVSPropertyOp21
 70
     1
102
RTVSPropertyOp22
 70
     1
102
RTVSPropertyOp23
 70
     1
102
RTVSPropertyOp24
 70
     1
102
RTVSPropertyOp25
 70
     1
102
RTVSPropertyOp26
 70
     1
102
RTVSPropertyOp27
 70
     1
102
RTVSPropertyOp28
 70
     1
102
RTVSPropertyOp29
 70
     1
102
RTVSPropertyOp30
 70
     1
102
RTVSPropertyOp31
 70
     1
102
RTVSPropertyOp32
 70
     1
102
RTVSPropertyOp33
 70
     1
102
RTVSPropertyOp34
 70
     1
102
RTVSPropertyOp35
 70
     1
102
RTVSPropertyOp36
 70
     1
102
RTVSPropertyOp37
 70
     1
102
RTVSPropertyOp38
 70
     1
102
RTVSPropertyOp39
 70
     1
102
RTVSPropertyOp40
 70
     1
102
RTVSPropertyOp41
 70
     1
102
RTVSPropertyOp42
 70
     1
102
RTVSPropertyOp43
 70
     1
102
RTVSPropertyOp44
 70
     1
102
RTVSPropertyOp45
 70
     1
102
RTVSPropertyOp46
 70
     1
102
RTVSPropertyOp47
 70
     1
102
RTVSPropertyOp48
 70
     1
102
RTVSPropertyOp49
 70
     1
102
RTVSPropertyOp50
 70
     1
102
RTVSPropertyOp51
 70
     0
102
RTVSPropertyOp52
 70
     0
102
RTVSPropertyOp53
 70
     1
102
RTVSPropertyOp54
 70
     1
102
RTVSPropertyOp55
 70
     1
102
RTVSPropertyOp56
 70
     1
102
RTVSPropertyOp57
 70
     1
102
RTVSPost2010Prop28
280
     0
102
RTVSPost2010PropOp28
 70
     1
102
RTVSPost2010Prop29
280
     1
102
RTVSPost2010PropOp29
 70
     1
102
RTVSPost2010Prop30
280
     1
102
RTVSPost2010PropOp30
 70
     1
102
RTVSPost2010Prop31
280
     0
102
RTVSPost2010PropOp31
 70
     1
102
RTVSPost2010Prop32
280
     0
102
RTVSPost2010PropOp32
 70
     1
102
RTVSPost2010Prop33
280
     0
102
RTVSPost2010PropOp33
 70
     1
102
RTVSPost2010Prop34
280
     0
102
RTVSPost2010PropOp34
 70
     1
102
RTVSPost2010Prop35
280
     0
102
RTVSPost2010PropOp35
 70
     1
102
RTVSPost2010Prop36
280
     0
102
RTVSPost2010PropOp36
 70
     1
102
RTVSPost2010Prop37
 90
       50
102
RTVSPost2010PropOp37
 70
     1
102
RTVSPost2010Prop38
140
0.0
102
RTVSPost2010PropOp38
 70
     1
102
RTVSPost2010Prop39
140
1.0
102
RTVSPost2010PropOp39
 70
     1
102
RTVSPost2010Prop40
 90
        0
102
RTVSPost2010PropOp40
 70
     1
102
RTVSPost2010Prop41ColorIndex
 90
       18
102
RTVSPost2010Prop41ColorRGB
 90
        0
102
RTVSPost2010PropOp41
 70
     1
102
RTVSPost2010Prop42
 90
       50
102
RTVSPost2010PropOp42
 70
     1
102
RTVSPost2010Prop43
 90
        3
102
RTVSPost2010PropOp43
 70
     1
102
RTVSPost2010Prop44ColorIndex
 90
        5
102
RTVSPost2010Prop44ColorRGB
 90
      255
102
RTVSPost2010PropOp44
 70
     1
102
RTVSPost2010Prop45
280
     0
102
RTVSPost2010PropOp45
 70
     1
102
RTVSPost2010Prop46
 90
       50
102
RTVSPost2010PropOp46
 70
     1
102
RTVSPost2010Prop47
 90
       50
102
RTVSPost2010PropOp47
 70
     1
102
RTVSPost2010Prop48
 90
       50
102
RTVSPost2010PropOp48
 70
     1
102
RTVSPost2010Prop49
280
     0
102
RTVSPost2010PropOp49
 70
     1
102
RTVSPost2010Prop50
 90
       50
102
RTVSPost2010PropOp50
 70
     1
102
RTVSPost2010Prop51ColorIndex
 90
      256
102
RTVSPost2010Prop51ColorRGB
 90
-16777216
102
RTVSPost2010PropOp51
 70
     0
102
RTVSPost2010Prop52
140
1.0
102
RTVSPost2010PropOp52
 70
     0
102
RTVSPost2010Prop53
 90
        2
102
RTVSPost2010PropOp53
 70
     1
102
RTVSPost2010Prop54
  1
strokes_ogs.tif
102
RTVSPost2010PropOp54
 70
     1
102
RTVSPost2010Prop55
280
     0
102
RTVSPost2010PropOp55
 70
     1
102
RTVSPost2010Prop56
140
1.0
102
RTVSPost2010PropOp56
 70
     1
102
RTVSPost2010Prop57
140
1.0
102
RTVSPost2010PropOp57
 70
     1
  0
XRECORD
  5
2B6
102
{ACAD_REACTORS
330
2B5
102
}
330
2B5
100
AcDbXrecord
280
     1
102
RTVSPropertyOp0
 70
     1
102
RTVSPropertyOp1
 70
     1
102
RTVSPropertyOp2
 70
     1
102
RTVSPropertyOp3
 70
     1
102
RTVSPropertyOp4
 70
     1
102
RTVSPropertyOp5
 70
     1
102
RTVSPropertyOp6
 70
     1
102
RTVSPropertyOp7
 70
     1
102
RTVSPropertyOp8
 70
     1
102
RTVSPropertyOp9
 70
     1
102
RTVSPropertyOp10
 70
     1
102
RTVSPropertyOp11
 70
     1
102
RTVSPropertyOp12
 70
     1
102
RTVSPropertyOp13
 70
     1
102
RTVSPropertyOp14
 70
     1
102
RTVSPropertyOp15
 70
     1
102
RTVSPropertyOp16
 70
     1
102
RTVSPropertyOp17
 70
     1
102
RTVSPropertyOp18
 70
     1
102
RTVSPropertyOp19
 70
     1
102
RTVSPropertyOp20
 70
     1
102
RTVSPropertyOp21
 70
     1
102
RTVSPropertyOp22
 70
     1
102
RTVSPropertyOp23
 70
     1
102
RTVSPropertyOp24
 70
     1
102
RTVSPropertyOp25
 70
     1
102
RTVSPropertyOp26
 70
     1
102
RTVSPropertyOp27
 70
     1
102
RTVSPropertyOp28
 70
     1
102
RTVSPropertyOp29
 70
     1
102
RTVSPropertyOp30
 70
     1
102
RTVSPropertyOp31
 70
     1
102
RTVSPropertyOp32
 70
     1
102
RTVSPropertyOp33
 70
     1
102
RTVSPropertyOp34
 70
     1
102
RTVSPropertyOp35
 70
     1
102
RTVSPropertyOp36
 70
     1
102
RTVSPropertyOp37
 70
     1
102
RTVSPropertyOp38
 70
     1
102
RTVSPropertyOp39
 70
     1
102
RTVSPropertyOp40
 70
     1
102
RTVSPropertyOp41
 70
     1
102
RTVSPropertyOp42
 70
     1
102
RTVSPropertyOp43
 70
     1
102
RTVSPropertyOp44
 70
     1
102
RTVSPropertyOp45
 70
     1
102
RTVSPropertyOp46
 70
     1
102
RTVSPropertyOp47
 70
     1
102
RTVSPropertyOp48
 70
     1
102
RTVSPropertyOp49
 70
     1
102
RTVSPropertyOp50
 70
     1
102
RTVSPropertyOp51
 70
     0
102
RTVSPropertyOp52
 70
     0
102
RTVSPropertyOp53
 70
     1
102
RTVSPropertyOp54
 70
     1
102
RTVSPropertyOp55
 70
     1
102
RTVSPropertyOp56
 70
     1
102
RTVSPropertyOp57
 70
     1
102
RTVSPost2010Prop28
280
     0
102
RTVSPost2010PropOp28
 70
     1
102
RTVSPost2010Prop29
280
     1
102
RTVSPost2010PropOp29
 70
     1
102
RTVSPost2010Prop30
280
     1
102
RTVSPost2010PropOp30
 70
     1
102
RTVSPost2010Prop31
280
     0
102
RTVSPost2010PropOp31
 70
     1
102
RTVSPost2010Prop32
280
     0
102
RTVSPost2010PropOp32
 70
     1
102
RTVSPost2010Prop33
280
     0
102
RTVSPost2010PropOp33
 70
     1
102
RTVSPost2010Prop34
280
     0
102
RTVSPost2010PropOp34
 70
     1
102
RTVSPost2010Prop35
280
     0
102
RTVSPost2010PropOp35
 70
     1
102
RTVSPost2010Prop36
280
     0
102
RTVSPost2010PropOp36
 70
     1
102
RTVSPost2010Prop37
 90
       50
102
RTVSPost2010PropOp37
 70
     1
102
RTVSPost2010Prop38
140
0.0
102
RTVSPost2010PropOp38
 70
     1
102
RTVSPost2010Prop39
140
1.0
102
RTVSPost2010PropOp39
 70
     1
102
RTVSPost2010Prop40
 90
        0
102
RTVSPost2010PropOp40
 70
     1
102
RTVSPost2010Prop41ColorIndex
 90
       18
102
RTVSPost2010Prop41ColorRGB
 90
        0
102
RTVSPost2010PropOp41
 70
     1
102
RTVSPost2010Prop42
 90
       50
102
RTVSPost2010PropOp42
 70
     1
102
RTVSPost2010Prop43
 90
        3
102
RTVSPost2010PropOp43
 70
     1
102
RTVSPost2010Prop44ColorIndex
 90
        5
102
RTVSPost2010Prop44ColorRGB
 90
      255
102
RTVSPost2010PropOp44
 70
     1
102
RTVSPost2010Prop45
280
     0
102
RTVSPost2010PropOp45
 70
     1
102
RTVSPost2010Prop46
 90
       50
102
RTVSPost2010PropOp46
 70
     1
102
RTVSPost2010Prop47
 90
       50
102
RTVSPost2010PropOp47
 70
     1
102
RTVSPost2010Prop48
 90
       50
102
RTVSPost2010PropOp48
 70
     1
102
RTVSPost2010Prop49
280
     0
102
RTVSPost2010PropOp49
 70
     1
102
RTVSPost2010Prop50
 90
       50
102
RTVSPost2010PropOp50
 70
     1
102
RTVSPost2010Prop51ColorIndex
 90
      256
102
RTVSPost2010Prop51ColorRGB
 90
-16777216
102
RTVSPost2010PropOp51
 70
     0
102
RTVSPost2010Prop52
140
1.0
102
RTVSPost2010PropOp52
 70
     0
102
RTVSPost2010Prop53
 90
        2
102
RTVSPost2010PropOp53
 70
     1
102
RTVSPost2010Prop54
  1
strokes_ogs.tif
102
RTVSPost2010PropOp54
 70
     1
102
RTVSPost2010Prop55
280
     0
102
RTVSPost2010PropOp55
 70
     1
102
RTVSPost2010Prop56
140
1.0
102
RTVSPost2010PropOp56
 70
     1
102
RTVSPost2010Prop57
140
1.0
102
RTVSPost2010PropOp57
 70
     1
  0
XRECORD
  5
2B0
102
{ACAD_REACTORS
330
2AF
102
}
330
2AF
100
AcDbXrecord
280
     1
102
RTVSPropertyOp0
 70
     1
102
RTVSPropertyOp1
 70
     1
102
RTVSPropertyOp2
 70
     1
102
RTVSPropertyOp3
 70
     1
102
RTVSPropertyOp4
 70
     1
102
RTVSPropertyOp5
 70
     1
102
RTVSPropertyOp6
 70
     1
102
RTVSPropertyOp7
 70
     1
102
RTVSPropertyOp8
 70
     1
102
RTVSPropertyOp9
 70
     1
102
RTVSPropertyOp10
 70
     1
102
RTVSPropertyOp11
 70
     1
102
RTVSPropertyOp12
 70
     1
102
RTVSPropertyOp13
 70
     1
102
RTVSPropertyOp14
 70
     1
102
RTVSPropertyOp15
 70
     1
102
RTVSPropertyOp16
 70
     1
102
RTVSPropertyOp17
 70
     1
102
RTVSPropertyOp18
 70
     1
102
RTVSPropertyOp19
 70
     1
102
RTVSPropertyOp20
 70
     1
102
RTVSPropertyOp21
 70
     1
102
RTVSPropertyOp22
 70
     1
102
RTVSPropertyOp23
 70
     1
102
RTVSPropertyOp24
 70
     1
102
RTVSPropertyOp25
 70
     1
102
RTVSPropertyOp26
 70
     1
102
RTVSPropertyOp27
 70
     1
102
RTVSPropertyOp28
 70
     1
102
RTVSPropertyOp29
 70
     1
102
RTVSPropertyOp30
 70
     1
102
RTVSPropertyOp31
 70
     1
102
RTVSPropertyOp32
 70
     1
102
RTVSPropertyOp33
 70
     1
102
RTVSPropertyOp34
 70
     1
102
RTVSPropertyOp35
 70
     1
102
RTVSPropertyOp36
 70
     1
102
RTVSPropertyOp37
 70
     1
102
RTVSPropertyOp38
 70
     1
102
RTVSPropertyOp39
 70
     1
102
RTVSPropertyOp40
 70
     1
102
RTVSPropertyOp41
 70
     1
102
RTVSPropertyOp42
 70
     1
102
RTVSPropertyOp43
 70
     1
102
RTVSPropertyOp44
 70
     1
102
RTVSPropertyOp45
 70
     1
102
RTVSPropertyOp46
 70
     1
102
RTVSPropertyOp47
 70
     1
102
RTVSPropertyOp48
 70
     1
102
RTVSPropertyOp49
 70
     1
102
RTVSPropertyOp50
 70
     1
102
RTVSPropertyOp51
 70
     0
102
RTVSPropertyOp52
 70
     0
102
RTVSPropertyOp53
 70
     1
102
RTVSPropertyOp54
 70
     1
102
RTVSPropertyOp55
 70
     1
102
RTVSPropertyOp56
 70
     1
102
RTVSPropertyOp57
 70
     1
102
RTVSPost2010Prop28
280
     0
102
RTVSPost2010PropOp28
 70
     1
102
RTVSPost2010Prop29
280
     1
102
RTVSPost2010PropOp29
 70
     1
102
RTVSPost2010Prop30
280
     1
102
RTVSPost2010PropOp30
 70
     1
102
RTVSPost2010Prop31
280
     0
102
RTVSPost2010PropOp31
 70
     1
102
RTVSPost2010Prop32
280
     0
102
RTVSPost2010PropOp32
 70
     1
102
RTVSPost2010Prop33
280
     0
102
RTVSPost2010PropOp33
 70
     1
102
RTVSPost2010Prop34
280
     0
102
RTVSPost2010PropOp34
 70
     1
102
RTVSPost2010Prop35
280
     0
102
RTVSPost2010PropOp35
 70
     1
102
RTVSPost2010Prop36
280
     0
102
RTVSPost2010PropOp36
 70
     1
102
RTVSPost2010Prop37
 90
       50
102
RTVSPost2010PropOp37
 70
     1
102
RTVSPost2010Prop38
140
0.0
102
RTVSPost2010PropOp38
 70
     1
102
RTVSPost2010Prop39
140
1.0
102
RTVSPost2010PropOp39
 70
     1
102
RTVSPost2010Prop40
 90
        0
102
RTVSPost2010PropOp40
 70
     1
102
RTVSPost2010Prop41ColorIndex
 90
       18
102
RTVSPost2010Prop41ColorRGB
 90
        0
102
RTVSPost2010PropOp41
 70
     1
102
RTVSPost2010Prop42
 90
       50
102
RTVSPost2010PropOp42
 70
     1
102
RTVSPost2010Prop43
 90
        3
102
RTVSPost2010PropOp43
 70
     1
102
RTVSPost2010Prop44ColorIndex
 90
        5
102
RTVSPost2010Prop44ColorRGB
 90
      255
102
RTVSPost2010PropOp44
 70
     1
102
RTVSPost2010Prop45
280
     0
102
RTVSPost2010PropOp45
 70
     1
102
RTVSPost2010Prop46
 90
       50
102
RTVSPost2010PropOp46
 70
     1
102
RTVSPost2010Prop47
 90
       50
102
RTVSPost2010PropOp47
 70
     1
102
RTVSPost2010Prop48
 90
       50
102
RTVSPost2010PropOp48
 70
     1
102
RTVSPost2010Prop49
280
     0
102
RTVSPost2010PropOp49
 70
     1
102
RTVSPost2010Prop50
 90
       50
102
RTVSPost2010PropOp50
 70
     1
102
RTVSPost2010Prop51ColorIndex
 90
      256
102
RTVSPost2010Prop51ColorRGB
 90
-16777216
102
RTVSPost2010PropOp51
 70
     0
102
RTVSPost2010Prop52
140
1.0
102
RTVSPost2010PropOp52
 70
     0
102
RTVSPost2010Prop53
 90
        2
102
RTVSPost2010PropOp53
 70
     1
102
RTVSPost2010Prop54
  1
strokes_ogs.tif
102
RTVSPost2010PropOp54
 70
     1
102
RTVSPost2010Prop55
280
     0
102
RTVSPost2010PropOp55
 70
     1
102
RTVSPost2010Prop56
140
1.0
102
RTVSPost2010PropOp56
 70
     1
102
RTVSPost2010Prop57
140
1.0
102
RTVSPost2010PropOp57
 70
     1
  0
XRECORD
  5
2B2
102
{ACAD_REACTORS
330
2B1
102
}
330
2B1
100
AcDbXrecord
280
     1
102
RTVSPropertyOp0
 70
     1
102
RTVSPropertyOp1
 70
     1
102
RTVSPropertyOp2
 70
     1
102
RTVSPropertyOp3
 70
     1
102
RTVSPropertyOp4
 70
     1
102
RTVSPropertyOp5
 70
     1
102
RTVSPropertyOp6
 70
     1
102
RTVSPropertyOp7
 70
     1
102
RTVSPropertyOp8
 70
     1
102
RTVSPropertyOp9
 70
     1
102
RTVSPropertyOp10
 70
     1
102
RTVSPropertyOp11
 70
     1
102
RTVSPropertyOp12
 70
     1
102
RTVSPropertyOp13
 70
     1
102
RTVSPropertyOp14
 70
     1
102
RTVSPropertyOp15
 70
     1
102
RTVSPropertyOp16
 70
     1
102
RTVSPropertyOp17
 70
     1
102
RTVSPropertyOp18
 70
     1
102
RTVSPropertyOp19
 70
     1
102
RTVSPropertyOp20
 70
     1
102
RTVSPropertyOp21
 70
     1
102
RTVSPropertyOp22
 70
     1
102
RTVSPropertyOp23
 70
     1
102
RTVSPropertyOp24
 70
     1
102
RTVSPropertyOp25
 70
     1
102
RTVSPropertyOp26
 70
     1
102
RTVSPropertyOp27
 70
     1
102
RTVSPropertyOp28
 70
     1
102
RTVSPropertyOp29
 70
     1
102
RTVSPropertyOp30
 70
     1
102
RTVSPropertyOp31
 70
     1
102
RTVSPropertyOp32
 70
     1
102
RTVSPropertyOp33
 70
     1
102
RTVSPropertyOp34
 70
     1
102
RTVSPropertyOp35
 70
     1
102
RTVSPropertyOp36
 70
     1
102
RTVSPropertyOp37
 70
     1
102
RTVSPropertyOp38
 70
     1
102
RTVSPropertyOp39
 70
     1
102
RTVSPropertyOp40
 70
     1
102
RTVSPropertyOp41
 70
     1
102
RTVSPropertyOp42
 70
     1
102
RTVSPropertyOp43
 70
     1
102
RTVSPropertyOp44
 70
     1
102
RTVSPropertyOp45
 70
     1
102
RTVSPropertyOp46
 70
     1
102
RTVSPropertyOp47
 70
     1
102
RTVSPropertyOp48
 70
     1
102
RTVSPropertyOp49
 70
     1
102
RTVSPropertyOp50
 70
     1
102
RTVSPropertyOp51
 70
     0
102
RTVSPropertyOp52
 70
     0
102
RTVSPropertyOp53
 70
     1
102
RTVSPropertyOp54
 70
     1
102
RTVSPropertyOp55
 70
     1
102
RTVSPropertyOp56
 70
     1
102
RTVSPropertyOp57
 70
     1
102
RTVSPost2010Prop28
280
     0
102
RTVSPost2010PropOp28
 70
     1
102
RTVSPost2010Prop29
280
     1
102
RTVSPost2010PropOp29
 70
     1
102
RTVSPost2010Prop30
280
     1
102
RTVSPost2010PropOp30
 70
     1
102
RTVSPost2010Prop31
280
     0
102
RTVSPost2010PropOp31
 70
     1
102
RTVSPost2010Prop32
280
     0
102
RTVSPost2010PropOp32
 70
     1
102
RTVSPost2010Prop33
280
     0
102
RTVSPost2010PropOp33
 70
     1
102
RTVSPost2010Prop34
280
     0
102
RTVSPost2010PropOp34
 70
     1
102
RTVSPost2010Prop35
280
     0
102
RTVSPost2010PropOp35
 70
     1
102
RTVSPost2010Prop36
280
     0
102
RTVSPost2010PropOp36
 70
     1
102
RTVSPost2010Prop37
 90
       50
102
RTVSPost2010PropOp37
 70
     1
102
RTVSPost2010Prop38
140
0.0
102
RTVSPost2010PropOp38
 70
     1
102
RTVSPost2010Prop39
140
1.0
102
RTVSPost2010PropOp39
 70
     1
102
RTVSPost2010Prop40
 90
        0
102
RTVSPost2010PropOp40
 70
     1
102
RTVSPost2010Prop41ColorIndex
 90
       18
102
RTVSPost2010Prop41ColorRGB
 90
        0
102
RTVSPost2010PropOp41
 70
     1
102
RTVSPost2010Prop42
 90
       50
102
RTVSPost2010PropOp42
 70
     1
102
RTVSPost2010Prop43
 90
        3
102
RTVSPost2010PropOp43
 70
     1
102
RTVSPost2010Prop44ColorIndex
 90
        5
102
RTVSPost2010Prop44ColorRGB
 90
      255
102
RTVSPost2010PropOp44
 70
     1
102
RTVSPost2010Prop45
280
     0
102
RTVSPost2010PropOp45
 70
     1
102
RTVSPost2010Prop46
 90
       50
102
RTVSPost2010PropOp46
 70
     1
102
RTVSPost2010Prop47
 90
       50
102
RTVSPost2010PropOp47
 70
     1
102
RTVSPost2010Prop48
 90
       50
102
RTVSPost2010PropOp48
 70
     1
102
RTVSPost2010Prop49
280
     0
102
RTVSPost2010PropOp49
 70
     1
102
RTVSPost2010Prop50
 90
       50
102
RTVSPost2010PropOp50
 70
     1
102
RTVSPost2010Prop51ColorIndex
 90
      256
102
RTVSPost2010Prop51ColorRGB
 90
-16777216
102
RTVSPost2010PropOp51
 70
     0
102
RTVSPost2010Prop52
140
1.0
102
RTVSPost2010PropOp52
 70
     0
102
RTVSPost2010Prop53
 90
        2
102
RTVSPost2010PropOp53
 70
     1
102
RTVSPost2010Prop54
  1
strokes_ogs.tif
102
RTVSPost2010PropOp54
 70
     1
102
RTVSPost2010Prop55
280
     0
102
RTVSPost2010PropOp55
 70
     1
102
RTVSPost2010Prop56
140
1.0
102
RTVSPost2010PropOp56
 70
     1
102
RTVSPost2010Prop57
140
1.0
102
RTVSPost2010PropOp57
 70
     1
  0
XRECORD
  5
2A2
102
{ACAD_REACTORS
330
2A1
102
}
330
2A1
100
AcDbXrecord
280
     1
102
RTVSPropertyOp0
 70
     1
102
RTVSPropertyOp1
 70
     1
102
RTVSPropertyOp2
 70
     1
102
RTVSPropertyOp3
 70
     1
102
RTVSPropertyOp4
 70
     1
102
RTVSPropertyOp5
 70
     1
102
RTVSPropertyOp6
 70
     1
102
RTVSPropertyOp7
 70
     1
102
RTVSPropertyOp8
 70
     1
102
RTVSPropertyOp9
 70
     1
102
RTVSPropertyOp10
 70
     1
102
RTVSPropertyOp11
 70
     1
102
RTVSPropertyOp12
 70
     1
102
RTVSPropertyOp13
 70
     1
102
RTVSPropertyOp14
 70
     1
102
RTVSPropertyOp15
 70
     1
102
RTVSPropertyOp16
 70
     1
102
RTVSPropertyOp17
 70
     1
102
RTVSPropertyOp18
 70
     1
102
RTVSPropertyOp19
 70
     1
102
RTVSPropertyOp20
 70
     1
102
RTVSPropertyOp21
 70
     1
102
RTVSPropertyOp22
 70
     1
102
RTVSPropertyOp23
 70
     1
102
RTVSPropertyOp24
 70
     1
102
RTVSPropertyOp25
 70
     1
102
RTVSPropertyOp26
 70
     1
102
RTVSPropertyOp27
 70
     1
102
RTVSPropertyOp28
 70
     1
102
RTVSPropertyOp29
 70
     1
102
RTVSPropertyOp30
 70
     1
102
RTVSPropertyOp31
 70
     1
102
RTVSPropertyOp32
 70
     1
102
RTVSPropertyOp33
 70
     1
102
RTVSPropertyOp34
 70
     1
102
RTVSPropertyOp35
 70
     1
102
RTVSPropertyOp36
 70
     1
102
RTVSPropertyOp37
 70
     1
102
RTVSPropertyOp38
 70
     1
102
RTVSPropertyOp39
 70
     1
102
RTVSPropertyOp40
 70
     1
102
RTVSPropertyOp41
 70
     1
102
RTVSPropertyOp42
 70
     1
102
RTVSPropertyOp43
 70
     1
102
RTVSPropertyOp44
 70
     1
102
RTVSPropertyOp45
 70
     1
102
RTVSPropertyOp46
 70
     1
102
RTVSPropertyOp47
 70
     1
102
RTVSPropertyOp48
 70
     1
102
RTVSPropertyOp49
 70
     1
102
RTVSPropertyOp50
 70
     1
102
RTVSPropertyOp51
 70
     0
102
RTVSPropertyOp52
 70
     0
102
RTVSPropertyOp53
 70
     1
102
RTVSPropertyOp54
 70
     1
102
RTVSPropertyOp55
 70
     1
102
RTVSPropertyOp56
 70
     1
102
RTVSPropertyOp57
 70
     1
102
RTVSPost2010Prop28
280
     0
102
RTVSPost2010PropOp28
 70
     1
102
RTVSPost2010Prop29
280
     1
102
RTVSPost2010PropOp29
 70
     1
102
RTVSPost2010Prop30
280
     1
102
RTVSPost2010PropOp30
 70
     1
102
RTVSPost2010Prop31
280
     0
102
RTVSPost2010PropOp31
 70
     1
102
RTVSPost2010Prop32
280
     0
102
RTVSPost2010PropOp32
 70
     1
102
RTVSPost2010Prop33
280
     0
102
RTVSPost2010PropOp33
 70
     1
102
RTVSPost2010Prop34
280
     0
102
RTVSPost2010PropOp34
 70
     1
102
RTVSPost2010Prop35
280
     0
102
RTVSPost2010PropOp35
 70
     1
102
RTVSPost2010Prop36
280
     0
102
RTVSPost2010PropOp36
 70
     1
102
RTVSPost2010Prop37
 90
       50
102
RTVSPost2010PropOp37
 70
     1
102
RTVSPost2010Prop38
140
0.0
102
RTVSPost2010PropOp38
 70
     1
102
RTVSPost2010Prop39
140
1.0
102
RTVSPost2010PropOp39
 70
     1
102
RTVSPost2010Prop40
 90
        0
102
RTVSPost2010PropOp40
 70
     1
102
RTVSPost2010Prop41ColorIndex
 90
       18
102
RTVSPost2010Prop41ColorRGB
 90
        0
102
RTVSPost2010PropOp41
 70
     1
102
RTVSPost2010Prop42
 90
       50
102
RTVSPost2010PropOp42
 70
     1
102
RTVSPost2010Prop43
 90
        3
102
RTVSPost2010PropOp43
 70
     1
102
RTVSPost2010Prop44ColorIndex
 90
        5
102
RTVSPost2010Prop44ColorRGB
 90
      255
102
RTVSPost2010PropOp44
 70
     1
102
RTVSPost2010Prop45
280
     0
102
RTVSPost2010PropOp45
 70
     1
102
RTVSPost2010Prop46
 90
       50
102
RTVSPost2010PropOp46
 70
     1
102
RTVSPost2010Prop47
 90
       50
102
RTVSPost2010PropOp47
 70
     1
102
RTVSPost2010Prop48
 90
       50
102
RTVSPost2010PropOp48
 70
     1
102
RTVSPost2010Prop49
280
     0
102
RTVSPost2010PropOp49
 70
     1
102
RTVSPost2010Prop50
 90
       50
102
RTVSPost2010PropOp50
 70
     1
102
RTVSPost2010Prop51ColorIndex
 90
      256
102
RTVSPost2010Prop51ColorRGB
 90
-16777216
102
RTVSPost2010PropOp51
 70
     0
102
RTVSPost2010Prop52
140
1.0
102
RTVSPost2010PropOp52
 70
     0
102
RTVSPost2010Prop53
 90
        2
102
RTVSPost2010PropOp53
 70
     1
102
RTVSPost2010Prop54
  1
strokes_ogs.tif
102
RTVSPost2010PropOp54
 70
     1
102
RTVSPost2010Prop55
280
     0
102
RTVSPost2010PropOp55
 70
     1
102
RTVSPost2010Prop56
140
1.0
102
RTVSPost2010PropOp56
 70
     1
102
RTVSPost2010Prop57
140
1.0
102
RTVSPost2010PropOp57
 70
     1
  0
XRECORD
  5
294
102
{ACAD_REACTORS
330
293
102
}
330
293
100
AcDbXrecord
280
     1
102
RTVSPropertyOp0
 70
     1
102
RTVSPropertyOp1
 70
     1
102
RTVSPropertyOp2
 70
     1
102
RTVSPropertyOp3
 70
     1
102
RTVSPropertyOp4
 70
     1
102
RTVSPropertyOp5
 70
     1
102
RTVSPropertyOp6
 70
     1
102
RTVSPropertyOp7
 70
     1
102
RTVSPropertyOp8
 70
     1
102
RTVSPropertyOp9
 70
     1
102
RTVSPropertyOp10
 70
     1
102
RTVSPropertyOp11
 70
     1
102
RTVSPropertyOp12
 70
     1
102
RTVSPropertyOp13
 70
     1
102
RTVSPropertyOp14
 70
     1
102
RTVSPropertyOp15
 70
     1
102
RTVSPropertyOp16
 70
     1
102
RTVSPropertyOp17
 70
     1
102
RTVSPropertyOp18
 70
     1
102
RTVSPropertyOp19
 70
     1
102
RTVSPropertyOp20
 70
     1
102
RTVSPropertyOp21
 70
     1
102
RTVSPropertyOp22
 70
     1
102
RTVSPropertyOp23
 70
     1
102
RTVSPropertyOp24
 70
     1
102
RTVSPropertyOp25
 70
     1
102
RTVSPropertyOp26
 70
     1
102
RTVSPropertyOp27
 70
     1
102
RTVSPropertyOp28
 70
     1
102
RTVSPropertyOp29
 70
     1
102
RTVSPropertyOp30
 70
     1
102
RTVSPropertyOp31
 70
     1
102
RTVSPropertyOp32
 70
     1
102
RTVSPropertyOp33
 70
     1
102
RTVSPropertyOp34
 70
     1
102
RTVSPropertyOp35
 70
     1
102
RTVSPropertyOp36
 70
     1
102
RTVSPropertyOp37
 70
     1
102
RTVSPropertyOp38
 70
     1
102
RTVSPropertyOp39
 70
     1
102
RTVSPropertyOp40
 70
     1
102
RTVSPropertyOp41
 70
     1
102
RTVSPropertyOp42
 70
     1
102
RTVSPropertyOp43
 70
     1
102
RTVSPropertyOp44
 70
     1
102
RTVSPropertyOp45
 70
     1
102
RTVSPropertyOp46
 70
     1
102
RTVSPropertyOp47
 70
     1
102
RTVSPropertyOp48
 70
     1
102
RTVSPropertyOp49
 70
     1
102
RTVSPropertyOp50
 70
     1
102
RTVSPropertyOp51
 70
     0
102
RTVSPropertyOp52
 70
     0
102
RTVSPropertyOp53
 70
     1
102
RTVSPropertyOp54
 70
     1
102
RTVSPropertyOp55
 70
     1
102
RTVSPropertyOp56
 70
     1
102
RTVSPropertyOp57
 70
     1
102
RTVSPost2010Prop28
280
     0
102
RTVSPost2010PropOp28
 70
     1
102
RTVSPost2010Prop29
280
     1
102
RTVSPost2010PropOp29
 70
     1
102
RTVSPost2010Prop30
280
     1
102
RTVSPost2010PropOp30
 70
     1
102
RTVSPost2010Prop31
280
     0
102
RTVSPost2010PropOp31
 70
     1
102
RTVSPost2010Prop32
280
     0
102
RTVSPost2010PropOp32
 70
     1
102
RTVSPost2010Prop33
280
     0
102
RTVSPost2010PropOp33
 70
     1
102
RTVSPost2010Prop34
280
     0
102
RTVSPost2010PropOp34
 70
     1
102
RTVSPost2010Prop35
280
     0
102
RTVSPost2010PropOp35
 70
     1
102
RTVSPost2010Prop36
280
     0
102
RTVSPost2010PropOp36
 70
     1
102
RTVSPost2010Prop37
 90
       50
102
RTVSPost2010PropOp37
 70
     1
102
RTVSPost2010Prop38
140
0.0
102
RTVSPost2010PropOp38
 70
     1
102
RTVSPost2010Prop39
140
1.0
102
RTVSPost2010PropOp39
 70
     1
102
RTVSPost2010Prop40
 90
        0
102
RTVSPost2010PropOp40
 70
     1
102
RTVSPost2010Prop41ColorIndex
 90
       18
102
RTVSPost2010Prop41ColorRGB
 90
        0
102
RTVSPost2010PropOp41
 70
     1
102
RTVSPost2010Prop42
 90
       50
102
RTVSPost2010PropOp42
 70
     1
102
RTVSPost2010Prop43
 90
        3
102
RTVSPost2010PropOp43
 70
     1
102
RTVSPost2010Prop44ColorIndex
 90
        5
102
RTVSPost2010Prop44ColorRGB
 90
      255
102
RTVSPost2010PropOp44
 70
     1
102
RTVSPost2010Prop45
280
     0
102
RTVSPost2010PropOp45
 70
     1
102
RTVSPost2010Prop46
 90
       50
102
RTVSPost2010PropOp46
 70
     1
102
RTVSPost2010Prop47
 90
       50
102
RTVSPost2010PropOp47
 70
     1
102
RTVSPost2010Prop48
 90
       50
102
RTVSPost2010PropOp48
 70
     1
102
RTVSPost2010Prop49
280
     0
102
RTVSPost2010PropOp49
 70
     1
102
RTVSPost2010Prop50
 90
       50
102
RTVSPost2010PropOp50
 70
     1
102
RTVSPost2010Prop51ColorIndex
 90
      256
102
RTVSPost2010Prop51ColorRGB
 90
-16777216
102
RTVSPost2010PropOp51
 70
     0
102
RTVSPost2010Prop52
140
1.0
102
RTVSPost2010PropOp52
 70
     0
102
RTVSPost2010Prop53
 90
        2
102
RTVSPost2010PropOp53
 70
     1
102
RTVSPost2010Prop54
  1
strokes_ogs.tif
102
RTVSPost2010PropOp54
 70
     1
102
RTVSPost2010Prop55
280
     0
102
RTVSPost2010PropOp55
 70
     1
102
RTVSPost2010Prop56
140
1.0
102
RTVSPost2010PropOp56
 70
     1
102
RTVSPost2010Prop57
140
1.0
102
RTVSPost2010PropOp57
 70
     1
  0
XRECORD
  5
2B4
102
{ACAD_REACTORS
330
2B3
102
}
330
2B3
100
AcDbXrecord
280
     1
102
RTVSPropertyOp0
 70
     1
102
RTVSPropertyOp1
 70
     1
102
RTVSPropertyOp2
 70
     1
102
RTVSPropertyOp3
 70
     1
102
RTVSPropertyOp4
 70
     1
102
RTVSPropertyOp5
 70
     1
102
RTVSPropertyOp6
 70
     1
102
RTVSPropertyOp7
 70
     1
102
RTVSPropertyOp8
 70
     1
102
RTVSPropertyOp9
 70
     1
102
RTVSPropertyOp10
 70
     1
102
RTVSPropertyOp11
 70
     1
102
RTVSPropertyOp12
 70
     1
102
RTVSPropertyOp13
 70
     1
102
RTVSPropertyOp14
 70
     1
102
RTVSPropertyOp15
 70
     1
102
RTVSPropertyOp16
 70
     1
102
RTVSPropertyOp17
 70
     1
102
RTVSPropertyOp18
 70
     1
102
RTVSPropertyOp19
 70
     1
102
RTVSPropertyOp20
 70
     1
102
RTVSPropertyOp21
 70
     1
102
RTVSPropertyOp22
 70
     1
102
RTVSPropertyOp23
 70
     1
102
RTVSPropertyOp24
 70
     1
102
RTVSPropertyOp25
 70
     1
102
RTVSPropertyOp26
 70
     1
102
RTVSPropertyOp27
 70
     1
102
RTVSPropertyOp28
 70
     1
102
RTVSPropertyOp29
 70
     1
102
RTVSPropertyOp30
 70
     1
102
RTVSPropertyOp31
 70
     1
102
RTVSPropertyOp32
 70
     1
102
RTVSPropertyOp33
 70
     1
102
RTVSPropertyOp34
 70
     1
102
RTVSPropertyOp35
 70
     1
102
RTVSPropertyOp36
 70
     1
102
RTVSPropertyOp37
 70
     1
102
RTVSPropertyOp38
 70
     1
102
RTVSPropertyOp39
 70
     1
102
RTVSPropertyOp40
 70
     1
102
RTVSPropertyOp41
 70
     1
102
RTVSPropertyOp42
 70
     1
102
RTVSPropertyOp43
 70
     1
102
RTVSPropertyOp44
 70
     1
102
RTVSPropertyOp45
 70
     1
102
RTVSPropertyOp46
 70
     1
102
RTVSPropertyOp47
 70
     1
102
RTVSPropertyOp48
 70
     1
102
RTVSPropertyOp49
 70
     1
102
RTVSPropertyOp50
 70
     1
102
RTVSPropertyOp51
 70
     0
102
RTVSPropertyOp52
 70
     0
102
RTVSPropertyOp53
 70
     1
102
RTVSPropertyOp54
 70
     1
102
RTVSPropertyOp55
 70
     1
102
RTVSPropertyOp56
 70
     1
102
RTVSPropertyOp57
 70
     1
102
RTVSPost2010Prop28
280
     0
102
RTVSPost2010PropOp28
 70
     1
102
RTVSPost2010Prop29
280
     1
102
RTVSPost2010PropOp29
 70
     1
102
RTVSPost2010Prop30
280
     1
102
RTVSPost2010PropOp30
 70
     1
102
RTVSPost2010Prop31
280
     0
102
RTVSPost2010PropOp31
 70
     1
102
RTVSPost2010Prop32
280
     0
102
RTVSPost2010PropOp32
 70
     1
102
RTVSPost2010Prop33
280
     0
102
RTVSPost2010PropOp33
 70
     1
102
RTVSPost2010Prop34
280
     0
102
RTVSPost2010PropOp34
 70
     1
102
RTVSPost2010Prop35
280
     0
102
RTVSPost2010PropOp35
 70
     1
102
RTVSPost2010Prop36
280
     0
102
RTVSPost2010PropOp36
 70
     1
102
RTVSPost2010Prop37
 90
       50
102
RTVSPost2010PropOp37
 70
     1
102
RTVSPost2010Prop38
140
0.0
102
RTVSPost2010PropOp38
 70
     1
102
RTVSPost2010Prop39
140
1.0
102
RTVSPost2010PropOp39
 70
     1
102
RTVSPost2010Prop40
 90
        0
102
RTVSPost2010PropOp40
 70
     1
102
RTVSPost2010Prop41ColorIndex
 90
       18
102
RTVSPost2010Prop41ColorRGB
 90
        0
102
RTVSPost2010PropOp41
 70
     1
102
RTVSPost2010Prop42
 90
       50
102
RTVSPost2010PropOp42
 70
     1
102
RTVSPost2010Prop43
 90
        3
102
RTVSPost2010PropOp43
 70
     1
102
RTVSPost2010Prop44ColorIndex
 90
        5
102
RTVSPost2010Prop44ColorRGB
 90
      255
102
RTVSPost2010PropOp44
 70
     1
102
RTVSPost2010Prop45
280
     0
102
RTVSPost2010PropOp45
 70
     1
102
RTVSPost2010Prop46
 90
       50
102
RTVSPost2010PropOp46
 70
     1
102
RTVSPost2010Prop47
 90
       50
102
RTVSPost2010PropOp47
 70
     1
102
RTVSPost2010Prop48
 90
       50
102
RTVSPost2010PropOp48
 70
     1
102
RTVSPost2010Prop49
280
     0
102
RTVSPost2010PropOp49
 70
     1
102
RTVSPost2010Prop50
 90
       50
102
RTVSPost2010PropOp50
 70
     1
102
RTVSPost2010Prop51ColorIndex
 90
      256
102
RTVSPost2010Prop51ColorRGB
 90
-16777216
102
RTVSPost2010PropOp51
 70
     0
102
RTVSPost2010Prop52
140
1.0
102
RTVSPost2010PropOp52
 70
     0
102
RTVSPost2010Prop53
 90
        2
102
RTVSPost2010PropOp53
 70
     1
102
RTVSPost2010Prop54
  1
strokes_ogs.tif
102
RTVSPost2010PropOp54
 70
     1
102
RTVSPost2010Prop55
280
     0
102
RTVSPost2010PropOp55
 70
     1
102
RTVSPost2010Prop56
140
1.0
102
RTVSPost2010PropOp56
 70
     1
102
RTVSPost2010Prop57
140
1.0
102
RTVSPost2010PropOp57
 70
     1
  0
ENDSEC
  0
EOF
